Song name
# A B C D E F G H I J K L M N O P Q R S T U V W X Y Z

Be Your Own Pet - Bog tab

-------------------------------------------------------------------------------
			     BOG - Be Your Own Pet
-------------------------------------------------------------------------------
Tabbed by: Sam Allen
Email: allenscool@hotmail.co.uk

 Tuning: standard
listen for the rythm. im trying to do this off memory.
 INTRO/VERSE
e|-------------------------------------|
B|-10-10-10-10-10-10-10-10-5/7-5-5-5-5-|
G|-10-10-10-10-10-10-10-10-5/7-6-6-6-6-|
D|-10-10-10-10-10-10-10-10-5/7-7-7-7-7-|
A|-8--8--8--8--8--8--8--8--3/5-7-7-7-7-|
E|-----------------------------5-5-5-5-|

 CHORUS
e|---------------------------|---------------------------|
B|---------------------------|---------------------------|
G|-10-10-10-10-10-10-9-10/14-|-10-10-10-10-10-10-9-10/12-| x 2 (I Think)
D|-10-10-10-10-10-10-9-10/14-|-10-10-10-10-10-10-9-10/12-|
A|-8--8--8--8--8--8--7-8-/12-|-8--8--8--8--8--8--7-8-/10-|
E|---------------------------|---------------------------|

e|------------------------------------|
B|------------------------------------|
G|-6-6-6-6-6-6-6-6-9--9--9--4-4-4-4-4-| x 4
D|-7-7-7-7-7-7-7-7-10-10-10-5-5-5-5-5-|
A|-7-7-7-7-7-7-7-7-10-10-10-5-5-5-5-5-|
E|-5-5-5-5-5-5-5-5-8--8--8--3-3-3-3-3-|

  RIFF/SOLO
e|---------------------|-------------------------|
B|---------------------|-------------------------|
G|---------------------|-------------------------|
D|---------------------|-------------------------| Repeated Quite A Few Times
A|-0-0-0-0-0-0-3p0-3p0-|---------3p0-3p0-3p0-3p0-|
E|---------------------|-3-3-3-3-----------------|

then back to verse and ends
e|-------------|
B|-10-10-10-10-|
G|-10-10-10-10-|
D|-10-10-10-10-|
A|-8--8--8--8--|
E|-------------|

p|   pull off
/|   slide up

Finished. 
This song is quite possibly from the best album I own.
Tap to rate this tab
 
# A B C D E F G H I J K L M N O P Q R S T U V W X Y Z