Song name
# A B C D E F G H I J K L M N O P Q R S T U V W X Y Z

Be Your Own Pet - Girls On Tv tab

-------------------------------------------------------------------------------
			     GIRLS ON TV - Be Your Own Pet
-------------------------------------------------------------------------------
Tabbed by: Sam Allen
Email: allenscool@hotmail.co.uk

Tuning: Standard.

Listen For Rythm. Cus I Might Not Have It Right.
Info In Brackets IS IMORTANT.

RIFF 1 

Play a D something like 24 times.
e|-------|---------------------------|
B|-------|---------------------------|
G|-------|---------------------------| 
D|-0-x-24|-----7-7------------7-7-7--| Repeat 10 times (I Think)
A|-------|-5-5-----7-7---------------|
E|-------|-------------7-7-5-5-5-5-5-|
then play a d5 
RIFF 2 (Might be slightly wrong)

e|-------------------|-------------------|
B|-------------------|-------------------|
G|-------------------|-------------------|
D|---9---------------|-------------------| Repeat 2 times 
A|-----9-7-----------|-----9-7-----------|
E|-7-------9-5-5-7-7-|-7-7-----9-3-3-5-5-|

CHORUS

e|--------------------------|
B|--------------------------|
G|-8-8-8-9-7--8-8-8-9-7-9-7-|
D|-9-9-9-9-7--9-9-9-9-7-9-7-|
A|-9-9-9-7\5--9-9-9-7\5-7\5-|
E|-7-7-7------7-7-7---------|

e|--------------------------|
B|--------------------------|
G|-8-8-8-9-7--9-9-9-9-9\7-7-|
D|-9-9-9-9-7--9-9-9-9-9\7-7-|
A|-9-9-9-7\5--7-7-7-7-7\5-5-|
E|-7-7-7--------------------|

Back To RIFF 1

SOLO (At The End Theyre 12s and 13s)

e|-------------------------------|----------------------------------|
B|----------10-------------------|----------10-------12-12-10-12-10-|
G|----------10-------------------|----------10-------12-12-10-12-10-|
D|-12-10-12----12-10-12----12----|-12-10-12----12-10----------------|
A|----------------------10----10-|----------------------------------|
E|-------------------------------|----------------------------------|

e|-------------------------------|----------------------------------|
B|----------10-------------------|-12121212121212121313131313131313-|
G|----------10-------------------|-12121212121212121313131313131313-|
D|-12-10-12----12-10-12----12----|----------------------------------|
A|----------------------10----10-|----------------------------------|
E|-------------------------------|----------------------------------|

e|-----------------|
B|-7-7-7-7-7-7-7-7-|
G|-7-7-7-7-7-7-7-7-|
D|-7-7-7-7-7-7-7-7-|
A|-5-5-5-5-5-5-5-5-| (Back to RIFF2 The CHORUS )
E|-----------------|
Then some strange chord I couldn't work out but it's based on a D barre chord

RIFF 3 (basically a broken down RIFF 1)

e|----------------|
B|----------------|
G|----------------|
D|-------7--------| Repeat four times
A|-5-5-5----7-----|
E|------------7-5-|

Then back to RIFF 1, RIFF 2 and CHORUS.

DA DA!
ANOTHER GREAT SONG.  
Tap to rate this tab
# A B C D E F G H I J K L M N O P Q R S T U V W X Y Z