Song name
# A B C D E F G H I J K L M N O P Q R S T U V W X Y Z

Be Your Own Pet - Electric Shake tab

-------------------------------------------------------------------------------
			     Electric Shake - Be Your Own Pet
-------------------------------------------------------------------------------
Tabbed by:Supa
Email:panic_ipod@hotmail.com

Tuning:Standard (EADGBe)

e|-------------3-(x7)-------------------------------------------------------|
B|-------------3------------------------------------------------------------|
G|----------------------Repeat lots of times)-------------------------------|
D|-3/5~--5-5/3--------------------------------------------------------------|
A|-3/5~--5-5/3--------------------------------------------------------------|
E|-1/3~--3-3/1--------------------------------------------------------------|

e|--------------------------------------------------------------------------|
B|---------3-3-3------------------------------------------------------------|
G|---------3-3-3------------------------------------------------------------|
D|-5-5-5-5-3-3-3-3-3-3-3----------------------------------------------------|
A|-5-5-5-5-1-1-1-3-3-3-3----------------------------------------------------|
E|-3-3-3-3-------1-1-1-1----------------------------------------------------|

This is all i know! Sry but i cant figure out the solo (im a n00b)!



Tap to rate this tab
# A B C D E F G H I J K L M N O P Q R S T U V W X Y Z