Song name
# A B C D E F G H I J K L M N O P Q R S T U V W X Y Z

Be Your Own Pet - Threshers Flail tab

----------------------------------------------------------------------------
		    THRESHER'S FLAIL - be your own PET
----------------------------------------------------------------------------
Tabbed by: moeppi
Email: vickycichon@hotmail.com

Tuning: stanard

Intro: (play 3x)

e|----------------------------|
B|----------------------------|
G|-------/7---/9--10-9-7-9----|
D|---9---/7---/9--10-9-7-9----|
A|---9---/5---/7---8-7-5-7----|
E|---7------------------------|

e|----------------------------|
B|----------------------------|
G|-------/7---/9--10-9-10-9---|
D|---9---/7---/9--10-9-10-9---|
A|---9---/5---/7---8-7--8-7---|
E|---7------------------------|

Intro 2: (play 2x)

e|----------------------------|
B|-------/7---/9--10-9-7-9----|
G|---8---/7---/9--10-9-7-9----|
D|---9---/7---/9--10-9-7-9----|
A|---9---/5---/7---8-7-5-7----|
E|---7------------------------|


Verse: 

(A)

e|----------------------------|
B|----------------------------|
G|---88888888888--5-6---------|
D|---99999999999--6-7---------|
A|---99999999999--6-7---------|
E|---77777777777--4-5---------|

(B)

e|----------------------------|
B|----------------------------|
G|---88888888888--5-6-7-------|
D|---99999999999--6-7-8-------|
A|---99999999999--6-7-8-------|
E|---77777777777--4-5-6-------|

"Still cornfields resting you in the sun..."

(then play (A) and (B) for another 3x)

(C)

e|----------------------------|
B|----------------------------|
G|---8--1111------------------|
D|---9--1212------------------|
A|---9--1212------------------|
E|---7--1010------------------|

(play (B) again 8x)

Still couldn't figure out the tabs at the end. Feel free to comment and I'll add it, too.
Tap to rate this tab
 
# A B C D E F G H I J K L M N O P Q R S T U V W X Y Z