Song name
# A B C D E F G H I J K L M N O P Q R S T U V W X Y Z

Be Your Own Pet - Bunk Trunk Skunk tab

Help us improve GuitareTab! Take a short survey!
                            BUNK TRUNK SKUNK
                                 by BYOP

standard tuning


VERSE

E|7---------------10---------------5-6-|
B|7---------------10---------------5-6-|
G|8---------------11---------------6-7-|
D|9---------------12---------------7-8-|
A|9---------------12---------------7-8-|
E|7---------------10---------------5-6-|x2


E|7---------------10---|
B|7---------------10---|
G|8---------------11---|
D|9---------------12x16|
A|9---------------12---|
E|7---------------10---|


CHORUS

E|77-7-77744-4-444|
B|77-7-77744-4-444|
G|88-8-88855-5-555|
D|99-9-99966-6-666|
A|99-9-99966-6-666|
E|77-7-77744-4-444|x8


BREAK

E|7777--7777|
B|7777--7777|
G|8888--8888|
D|9999--9999|
A|9999--9999|
E|7777--7777|

repeat verse

repeat chorus riff x4 instead of x8.

OUTRO

E|7777--7777---77-7-77744-4-444|
B|7777--7777---77-7-77744-4-444|
G|8888--8888---88-8-88855-5-555|
D|9999--9999---99-9-99966-6-666|
A|9999--9999---99-9-99966-6-666|
E|7777--7777---77-7-77744-4-444|x3, faster each time.


Related for Bunk Trunk Skunk tab