Song name
# A B C D E F G H I J K L M N O P Q R S T U V W X Y Z

Beach Boys - Wipe Out tab

-------------------------------------------------------------------------------
			     Wipe Out - Beach Boys
-------------------------------------------------------------------------------
Tabbed by:
Email:

Tuning:

e|---------------------------------------------------------------------------|
B|---------------------------------------------------------------------------|
G|---------------------------------------------------------------------------|
D|-----------------------------------------------    4x   -------------------|
A|-------1-2-3-3-3---1-------------------------------------------------------|
E|---3-------------------3-3-------------------------------------------------|



e|---------------------------------------------------------------------------|
B|---------------------------------------------------------------------------|
G|---------------------------------------------------------------------------|
D|--------1-2-3-3-3---------------------- 2x --------------------------------|
A|----3---------------3-3----------------------------------------------------|
E|---------------------------------------------------------------------------|   BACK TO THE ONE AT THE TOP 2x   THEN THE ONE BELOW



e|---------------------------------------------------------------------------|
B|---------------------------------------------------------------------------|
G|----------------0-0--------------0-----------------------------------------|
D|---------3--4---------3--0---0-------4---3-3-3----1------------------------|
A|-----3------------------------------------------------3--------------------|
E|---------------------------------------------------------------------------| THEN



e|---------------------------------------------------------------------------|
B|---------------------------------------------------------------------------|
G|---------------------------------------------------------------------------|
D|---------------------------------------------------------------------------|
A|-------1-2-3-3-3---1-----------1---2--3------------------------------------|
E|---3-------------------3-3------------------3-3-3-3-3----------------------|SOLO



e|---------------------------------------------------------------------------|
B|---------------------------------------------------------------------------|
G|------------------------5--------------------------------------------------|
D|----------------8---------------------  2x---------------------------------|
A|----3- ~ ------------------------------------------------------------------|
E|---------------------------------------------------------------------------|



e|---------------------------------------------------------------------------|
B|-------------------------------------6-------------------------------------|
G|-------------------------8-------------------------------------------------|
D|-----3-- ~  ---------------------------------------------------------------|
A|---------------------------------------------------------------------------|
E|---------------------------------------------------------------------------|THEN THE ONE BEFORE THAT


e|---------------------------------------------------------------------------|
B|-----------8--------------6------------------------------------------------|
G|-----0-------------------------------------------5-------------------------|
D|-----------------3---------------------------------------------------------|
A|--------------------------------------3------------------------------------|
E|----------------------------------------------------------3-3-3-3----------|
THEN REPEAT FROM TOP


| /  slide up
| \  slide down
| h  hammer-on
| p  pull-off
| ~  vibrato
| +  harmonic
| x  Mute note
===============================================================================
Tap to rate this tab
# A B C D E F G H I J K L M N O P Q R S T U V W X Y Z