Song name
# A B C D E F G H I J K L M N O P Q R S T U V W X Y Z

Beach Boys - Surfin Usa tab

Intro:

E------------11-11-11----------------11---|
B------------11-11-11-11-11-11-11-11-11---|
G------12-13-12-12-12-13-12-12-12-13-12---|
D--/13----------------------13------------|
A-----------------------------------------|
E-----------------------------------------|


Chords:
 
E--6------6------4---|    
B--6------8------4---|
G--7------8------5---|
D--8------8------6---|
A--8------6------6---|
E--6------6------4---|

Tap to rate this tab
 
# A B C D E F G H I J K L M N O P Q R S T U V W X Y Z