Song name
# A B C D E F G H I J K L M N O P Q R S T U V W X Y Z

Beach Boys - Fun Fun Fun tab

Great song by a great artist.
here it is!



e----------------10---------10---------10---------13--10----------|
B-------10--12---10--10-10--10--10-10--10--10-10--12--10--12------|
G--11-----------------------------------------------------12--10--|
D-------------------------------------------------------------10--|
A-----------------------------------------------------------------|
E-----------------------------------------------------------------|


e-----------------------------------------------------------------|
B---------------------------------------------10-10-----10-10-----|
G-/11-11-11--/11-11-11--/11-11-11--/11-11-11--10-10-----10-10-----|
D-/12-12-12--/12-12-12--/12-12-12--/12-12-12--------12--------12--|
A-----------------------------------------------------------------|
E-----------------------------------------------------------------|


e-----------------------------------------------------------------|
B-----------10-----10-----10-----10-10------10-----10-----10------|
G-10-10--12b----12b----12b----12b--------12b----12b----12b----12b-|
D-----------------------------------------------------------------|
A-----------------------------------------------------------------|
E-----------------------------------------------------------------|


e-------10----13-12-10--------------------------------------------|
B-10-10----10----------12-10---10-12-12-10---10----12----10----12-|
G----------------------12-10---10-12-12-10---11----12----11----12-|
D-----------------------------------------------12----12----12----|
A-----------------------------------------------------------------|
E-----------------------------------------------------------------|


e-----------------------------------------------------------------|
B-10--10-10-10-10-10\---------------------------------------------|
G-11--11-11-11-11-11\---------------------------------------------|
D-----------------------------------------------------------------|
A-----------------------------------------------------------------|
E-----------------------------------------------------------------|

Any questions or suggestions email me at musicfreakbw@aim.com Thanks!
Tap to rate this tab
 
# A B C D E F G H I J K L M N O P Q R S T U V W X Y Z