Song name
# A B C D E F G H I J K L M N O P Q R S T U V W X Y Z

Beach Boys - Youre So Good To Me tab

Band: Beach Boys
Song: You're So Good To Me

Tabbed by: Jose
Tuning: standard tuning

This tab only explains one of the guitars that is played during this song (for 
chords, you have 3 nice tabs in this website).


(I)
E|-----------------------------|
B|-----------------------------|
G|-----------------------------|
D|--3--3--3--------------------|
A|----------5-3-5--------------|
E|-----------------------------|

(II)
E|-----------------------------|
B|-----------------------------|
G|-----------------------------|
D|--5--5--5--------------------|
A|----------7-5-7--------------|
E|-----------------------------|

(III)
E|-----------------------------|
B|-----------------------------|
G|-----------------------------|
D|-----------------------------|
A|--3--3--3--------------------|
E|----------5-3-5--------------|

(IV)
E|-----------------------------|
B|-----------------------------|
G|-----------------------------|
D|-----------------------------|
A|--1--1--1--------------------|
E|----------3-1-3--------------|


Order:

1) Intro:

I (x2)

2) First Part:

I (x2)
II (x2)
III (x2)
I (x4)
II (x2)
III (x2)
IV
III

3) Chorus ("lalalala" part):

I (x2)
II (x2)
I (x2)
III (x2)

------

4) Repeat First Part.

5) Repeat Chorus.

6) Repeat Intro.

7) Repeat Chorus.
Tap to rate this tab
# A B C D E F G H I J K L M N O P Q R S T U V W X Y Z