Song name
# A B C D E F G H I J K L M N O P Q R S T U V W X Y Z

Beach Boys - Sloop John B tab

Sloop John B
The Beach Boys
Pet Sounds
126 BPM
Key: Ab

The same rhythm is just repeated thru the whole song.  This is my first tab, I'm 
pretty sure I got it right.  This is how I play it.  I find fingerpicking it to be easier, but you 
can use a pick as well.  It sounds good with max reverb and chorus if you have one.  
Please rate good and/or comment.  Enjoy


Intro (Flute for guitar)
E|-7-----8-7----| 
B|-----------8--|
G|-------------7|
D|--------------|
A|--------------|
E|--------------|


Rhythm
E|7-----7-----8---7-----7-----7---7-----7-----8---7-----7-----8---7-----7------|
B|--8-----8-----8---8-----8-----8---8-----8-----8---8-----8-----8---8-----8----|
G|7---7-----7-7---7---7-----7-7---7---7-----7-7---7---7-----7-7---7---7-----7--|
D|-----------------------------------------------------------------------------|
A|-----------------------------------------------------------------------------|
E|-----------------------------------------------------------------------------|

   
E|8---10-----10---8-7---5-----5-----5---5-----5-----5---3-----3-----3---3------|
B|--8----8------8-----8---7-----7-----7---7-----7-----7---3-----3-----3---3----|
G|7---7----7------------7---7-----7---------7-----7-----4---4-----4---------4--|
D|-----------------------------------------------------------------------------|
A|-----------------------------------------------------------------------------|
E|-----------------------------------------------------------------------------|


E|3-----3---3-----3-----3---3-----3-----3---7-----7-----8---5-----5-----5---3--|
B|--3-----3---5-----5-----5---5-----5-----5---8-----8-----8---7-----7-----7---3|
G|----4-----5---5-----5-----5---5-----5-----7---7-----7-7---7---7-----7-----4--|
D|-----------------------------------------------------------------------------|
A|-----------------------------------------------------------------------------|
E|-----------------------------------------------------------------------------|


E|--3-----3---|                                                       
B|----3-----3-|  And just keep                                
G|4-----4-----| repeating that...      
D|------------|
A|------------|
E|------------|
Tap to rate this tab
 
# A B C D E F G H I J K L M N O P Q R S T U V W X Y Z