Song name
# A B C D E F G H I J K L M N O P Q R S T U V W X Y Z

Beach Boys - California Girls tab

Help us improve GuitareTab! Take a short survey!
e|-----4----------2--------0------------------------------------------------|
B|-------------------------------------4----------2------0---------x2-------|
G|-4-------4-------4-----------------4-------4------------------------------|
D|--------------------------------------------------------------------------|
A|--------------------------------------------------------------------------|
E|--------------------------------------------------------------------------|

e|-----2-----0--------------------------------------------------------------|
B|----------------------3---------2-----------------------------------------|
G|--2-----2-------2---------2-----------------------------------------------|
D|--------------------------------------------------------------------------|
A|--------------------------------------------------------------------------|
E|--------------------------------------------------------------------------|
Related for California Girls tab