Song name
# A B C D E F G H I J K L M N O P Q R S T U V W X Y Z

Beach Boys - Dont Worry Baby tab

INTRO

E:------------------------------------------------------
B:-0-0-0-0--2-2-2-2--2-2-2--12--12--14--14--------------
G:-1-1-1-1--2-2-2-2--2-2-2--12--12--14--14--------------
D:-2-2-2-2--2-2-2-2--2-2-2--13--13----------------------
A:-2-2-2-2--0-0-0-0--2-2-2------------------------------
E:------------------------------------------------------

Begaining

E:------------------------
B:-0-0-0-0--2-2-2--4-4-4--
G:-1-1-1-1--2-2-2--4-4-4--
D:-2-2-2-2--2-2-2--4-4-4--
A:-2-2-2-2--0-0-0--2-2-2--
E:------------------------

E:------------------------
B:-0-0-0-0--2-2-2--4-4-4--
G:-1-1-1-1--2-2-2--4-4-4--
D:-2-2-2-2--2-2-2--4-4-4--
A:-2-2-2-2--0-0-0--2-2-2--
E:------------------------

Then after all that it would go to this part

E:---------------------------------------------------
B:------4-4-4-------6-6-6------------0-0-0-----------
G:-3-3--4-4-4-------6-6-6--4-4--2-2--1-1-1-----------   x2
D:-3-3--4-4-4--3-3--6-6-6--4-4--2-2--2-2-2-----------
A:-0-0--2-2-2--3-3--4-4-4--0-0--0-0--2-2-2-----------
E:-------------0-0-----------------------------------

Then this part after you play it twice it goes to the part
That says begaining.

coures

E:------------------------------------------
B:-12-12--14-14--12-12--14-14-14------------
G:-12-12--14-14--12-12--14-14-14------------
D:-13-13---------13-13----------------------
A:------------------------------------------
E:------------------------------------------

Back to the begaining part then after play all that again then it goes 
You would play that on part that say to play twice you play that part

THis is my first second tab so tell me if it is good.
Tap to rate this tab
 
# A B C D E F G H I J K L M N O P Q R S T U V W X Y Z