Song name
# A B C D E F G H I J K L M N O P Q R S T U V W X Y Z

Beach Fossils - Fall Right In tab

guitar 1:
Em F 
|--3-5-----|
|--5-6-----|
|--4-5-----|
|----------|
|----------|
|----------|

guitar 2:
Bm C G
|--------------------------------------|
|--3---3---3---3---5---5---5---5-------|
|----4---4---4---4---5---5---5---5-----|
|--------------------------------------| 3x
|--------------------------------------|
|--------------------------------------|

|--------------------------------------|
|--0---0---0---0---0---0---0---0-------|
|----0---0---0---0---0---0---0---0-----|
|--------------------------------------|
|--------------------------------------|
|--------------------------------------|

Em
I can稚 see a thing; well it痴 on your face
                                                            Em
I知 running down my stairs, and I知 heading to your place
                             F
Do you know what you have done to me?

We're spending all our time, it痴 never felt so right
The sun lights the room , cus we talked all night
I could stay with you till the sun goes out


guitar 2 comes in.

Em
And I知 walking home, through the empty streets
                                          Em
I gave you a kiss, and you turned to me
                                    F
I致e never cared so much about anything before
     Em
It痴 easy to lose track when you致e lost your cares
                                               Em
Forget about my friends, and I know it痴 unfair
                              F
I致e been reminded how it feels to be again


guitar 2 comes in.

Em
I値l do it again, I値l fall right in
I値l do it again, I値l fall right in
Em
I値l do it again, I値l fall right in
F
I値l do it again, I値l fall right in

(go on with Em and F or play guitar 2 like:)

Bm           C   
I値l do it again, I値l fall right in (Do it again.All again)
Bm           C
I値l do it again, I値l fall right in (I値l fall, Fall right in)
Bm           C                             G
I値l do it again, I値l fall right in

I値l do it again, I値l fall right in (Do it again, All again)
I値l do it again, I値l fall right in (I値l fall, I will fall right in)
I値l do it again, I値l fall right in

Tap to rate this tab
# A B C D E F G H I J K L M N O P Q R S T U V W X Y Z