Song name
# A B C D E F G H I J K L M N O P Q R S T U V W X Y Z

Beach Fossils - The Horse tab

INTRO:

guitar 1:
|-----------------------------------------------|
|-----------------------------------------------|
|--7---7--------7-------------------------------|
|----9---9--7-9---9-7--9/7-55-55-7-5---5---5-7--|
|------------------------------------7---7------|
|-----------------------------------------------|

guitar 2:
|-------------------------------|
|-------------------------------|
|--444444-777777----------------|
|----------------555555-555555--|
|--222222-555555----------------|
|----------------333333-333333--|


VERSE:
only guitar 2 wuth Bm D G
|-------------------------------|
|-------------------------------|
|--444444-777777----------------|
|----------------555555-555555--|
|--222222-555555----------------|
|----------------333333-333333--|


BRIDGE:

guitar 1:
|--------------------------------------|
|--------------------------------------|
|--------------------------------------|
|----------9999-7-5-222222222222-------|
|--5-55-55-----------------------------|
|--------------------------------------|

|--------------------------------------|
|--------------------------------------|
|--------------------------------------|
|----------9999-7-5-22222222/5555------|
|--5-55-55-----------------------------|
|--------------------------------------|

VERSE
BRIDGE
INTRO
(last time variation:)

guitar 1:
|-----------------------------------------------|
|-----------------------------------------------|
|--7---7--------7-------------------------------|
|----9---9--7-9---9-7--9/7-55-55-7-5---5---5----|
|------------------------------------7---7---7--|
|-----------------------------------------------|
Tap to rate this tab
# A B C D E F G H I J K L M N O P Q R S T U V W X Y Z