Song name
# A B C D E F G H I J K L M N O P Q R S T U V W X Y Z

Beach Fossils - Golden Age Acoustic tab

Acoustic version of 'Golden Age'.

https://vimeo.com/17368735#at=191

Intro and first guitar during whole song

A F#m

Than second guitar

e|-9----------------9----------------9----------------12----12----12----12----|
B|---10---10---10-----10---10---10-----10---10---10-----10----10----10-----10-|
G|------9----9----9-------9----9---9-------9----9---9-------------------------|
D|----------------------------------------------------------------------------|
A|----------------------------------------------------------------------------|
E|----------------------------------------------------------------------------|

e|-9----------------9----------------9----------------12----12----12----12----|
B|---10---10---10-----10---10---10-----10---10---10-----10----10----10-----10-|
G|------9----9----9-------9----9---9-------9----9---9-------------------------|
D|----------------------------------------------------------------------------|
A|----------------------------------------------------------------------------|
E|----------------------------------------------------------------------------|

E|--9--------|
B|--10-------|
G|--9--------|
D|-----------|
A|-----------|
E|-----------|

A
And I'm not trying 
To lose my mind
F#
But I couldn't say 
That I would mind
A
You only see 
What you want to see
F#
And I don't want you to see me
A
I don't know what 
I'm doing tonight
F#m
I never know what 
I'm doing tonight
A
And I never have plans 
When it turns to night
F#
'Cause I don't do nothin' 
But stay inside


Second guitar solo (kind of); four times        
E|-----------------------------------------------------|
B|-----------------------------------------------------|
G|--9-9-9-9-9-9-9h11--9---------9--------------9-------|
D|------------------------9--9-----11--11--11----------|
A|-----------------------------------------------------|
E|-----------------------------------------------------|

During that solo first guitar plays

E D A chords
            E                 D                A
E|----------------------|-----------|--------------------|
B|----------------------|-----------|--------------------|
G|--9-9-9-9-9-9-9h11--9-|--------9--|-------------9------|
D|----------------------|--9--9-----|-11--11--11----11---|
A|----------------------|-----------|--------------------|
E|----------------------|-----------|--------------------|

Second guitar
e|-9----------------9----------------9----------------12----12----12----12----|
B|---10---10---10-----10---10---10-----10---10---10-----10----10----10-----10-|
G|------9----9----9-------9----9---9-------9----9---9-------------------------|
D|----------------------------------------------------------------------------|
A|----------------------------------------------------------------------------|
E|----------------------------------------------------------------------------|

e|-9----------------9----------------9----------------12----12----12----12----|
B|---10---10---10-----10---10---10-----10---10---10-----10----10----10-----10-|
G|------9----9----9-------9----9---9-------9----9---9-------------------------|
D|----------------------------------------------------------------------------|
A|----------------------------------------------------------------------------|
E|----------------------------------------------------------------------------|

E|--9--------|
B|--10-------|
G|--9--------|
D|-----------|
A|-----------|
E|-----------|

I'm unlocking the doors
And we'll go to the roof
'Cause the stories we told 
Are becoming the truth
Just put out your hand
And I'll take it in mine
Walk down to the center
Of the wind and shine

We'll take a swig
And we'll lie right down
We'll become all the colors
Of each others sounds
We can pick one up
And we can let it fly
'Cause in the Golden age
We'll never die

Than solo again ( 4 times also)
            E                 D                A
E|----------------------|-----------|--------------------|
B|----------------------|-----------|--------------------|
G|--9-9-9-9-9-9-9h11--9-|--------9--|-------------9------|
D|----------------------|--9--9-----|-11--11--11----11---|
A|----------------------|-----------|--------------------|
E|----------------------|-----------|--------------------|

Second guitar
e|-9----------------9----------------9----------------12----12----12----12----|
B|---10---10---10-----10---10---10-----10---10---10-----10----10----10-----10-|
G|------9----9----9-------9----9---9-------9----9---9-------------------------|
D|----------------------------------------------------------------------------|
A|----------------------------------------------------------------------------|
E|----------------------------------------------------------------------------|

e|-9----------------9----------------9----------------12----12----12----12----|
B|---10---10---10-----10---10---10-----10---10---10-----10----10----10-----10-|
G|------9----9----9-------9----9---9-------9----9---9-------------------------|
D|----------------------------------------------------------------------------|
A|----------------------------------------------------------------------------|
E|----------------------------------------------------------------------------|

E|--9--------|
B|--10-------|
G|--9--------|
D|-----------|
A|-----------|
E|-----------|

tabs by: Wojtek Pastusiak ( wojtekp96@gmail.com )
Tap to rate this tab
# A B C D E F G H I J K L M N O P Q R S T U V W X Y Z