Song name
# A B C D E F G H I J K L M N O P Q R S T U V W X Y Z

Beach Fossils - Distance tab

Beach Fossils - Distance
B-side to the Face It 7" (captured tracks 2010).

Tabbed by Isaac Murguia, July 2012.
YouTube: Goadiroth

INTRO:
e|---|----2-3-2-3-2---------------|
B|---|-3------------3---3---3-----|
G|---|----------------------------|
D|---|----------------------------| (x2)
A|-0-|----------------2---2---2-0-| don't repeat
E|---|----------------------------| very first note ("0")

VERSE ("INTRO" x11) end on:
e|------------|
B|-3----------|
G|------------|
D|------------|
A|------------|
E|------------|

CHORUS: ("but now, i can't lie...")
e|---------------------------|--------------------------|
B|-10-10\7----7\5----5/8-8-7-|---3---2--3--3/7-7-55-8-7-|
G|----------0------0---------|-0---0--------------------|
D|---------------------------|--------------------------| (x4)
A|---------------------------|--------------------------|
E|---------------------------|--------------------------|

Repeat INTRO (x4)

SOLO:
e|-5--|---------------------------------------|
B|-3--|---------------------------------------|
G|----|-7776-7-6------6---------------------7-|
D|----|----------9--9---9-7--------7----7h9---| (x2)
A|----|---------------------9--7h9---9--------| don't repeat
E|----|---------------------------------------| first part

Repeat INTRO (x4)
Repeat CHORUS (x4) END.
Tap to rate this tab
# A B C D E F G H I J K L M N O P Q R S T U V W X Y Z