Song name
# A B C D E F G H I J K L M N O P Q R S T U V W X Y Z

Beach Fossils - Fall Right In tab

Beach Fossils - Fall Right In
From the What A Pleasure EP (captured tracks 2011).

Tabbed by Isaac Murguia, July 2012.
YouTube: Goadiroth

MELODY:
               (x3)                               (x1)
e|---------------------------------|---------------------------------|
B|-3---3---3---3---5---5---5---5---|---------------------------------|
G|---------------------------------|-4---4---4---4---4---4-5-4---4---|
D|---5---5---5---5---5---5---5---5-|---5---5---5---5---5-------5---5-|
A|---------------------------------|---------------------------------|
E|---------------------------------|---------------------------------|

CHORDS:
e|-7--------7----8----|
B|-8--------8----8----|
G|-9--------9----9----|
D|--------------------| (x2)
A|--------------------|
E|--------------------|

Repeat MELODY
Repeat CHORDS
Repeat MELODY (x4) + fade out.
Tap to rate this tab
 
# A B C D E F G H I J K L M N O P Q R S T U V W X Y Z