Song name
# A B C D E F G H I J K L M N O P Q R S T U V W X Y Z

Beach Fossils - Moments tab

-------------------------------------------------------------------------------
                             MOMENTS - Beach Fossils
-------------------------------------------------------------------------------

e|---0---0---0---0---0---0---12--12--12--12--12--12--12----------------------|
B|---10--10--10--10--10--10--10--10--10--10--10--10--10----------------------|
G|---11--11--11--11--11--11--11--11--11--11--11--11--11----------------------|
D|---12--12--12--12--12--12--12--12--12--12--12--12--12----------------------|
A|---------------------------------------------------------------------------|
E|---------------------------------------------------------------------------|

e|---0---0---0---0---0---0---0---0---0---0---0---0---0-----------------------|
B|---12--12--12--12--12--12--12--12--12--12--12--12--12----------------------|
G|---11--11--11--11--11--11--11--11--11--11--11--11--11----------------------|
D|---12--12--12--12--12--12--12--12--12--12--12--12--12----------------------|
A|---------------------------------------------------------------------------|
E|---------------------------------------------------------------------------|
Tap to rate this tab
 
# A B C D E F G H I J K L M N O P Q R S T U V W X Y Z