Song name
# A B C D E F G H I J K L M N O P Q R S T U V W X Y Z

Beach Fossils - The Horse tab

Beach Fossils - The Horse
From their debut album "Beach Fossils" (Captured Tracks 2010).

Tabbed by Isaac Murguia, October 2013.
Originally uploaded to Ultimate-Guitar.com
YouTube: Goadiroth

Legend:
1.2.3.4. = first repetition, second repetition, etc.

INTRO LEAD:                                  1.2.3.    4.
e|------------------------------------------|---------|-------|
B|------------------------------------------|---------|-------|
G|-7---7--------7---------------------------|---------|-------|
D|---9---9--7-9---9--7-9-7-5-5--5-5-7-5---5-|---5-7---|-------|
A|--------------------------------------7---|-7-------|-7-----|
E|------------------------------------------|---------|-------|

INTRO RHYTHM: (comes in on 3rd rep. of 'intro lead'
               also repeats throughout whole song)
e|--------------------------------------|
B|--------------------------------------|
G|--------------------------------------|
D|--------------------------------------|
A|-2-22-222--5-55-555-------------------|
E|---------------------3-33-3333-33-333-| [x2]

VERSE: Repeat INTRO RHYTHM [x4]

CHORUS:                         1.3.4.   2.
e|-----------------------------|--------|----------|
B|-----------------------------|--------|----------|
G|-----------------------------|--------|----------|
D|----------9-99-7-5-----------|--------|----------|
A|-5-55-555----------7-77-7777-|-77-777-|-77-10-10-|
E|-----------------------------|--------|----------|

VERSE: Repeat INTRO RHYTHM [x4]

Repeat CHORUS
Repeat INTRO LEAD
Repeat CHORUS (until fade)

End. Please rate!
Tap to rate this tab
 
# A B C D E F G H I J K L M N O P Q R S T U V W X Y Z