Song name
# A B C D E F G H I J K L M N O P Q R S T U V W X Y Z

Beach Fossils - Sometimes tab

Beach Fossils - Sometimes
From their debut album "Beach Fossils" (Captured Tracks 2010).

Tabbed by Isaac Murguia, October 2013.
Originally uploaded to Ultimate-Guitar.com
YouTube: Goadiroth

MAIN RIFF: (repeats throughout whole song)
e|-----------------|-----------------|-----------------|-----------------|
B|-----------------|-----------------|-----------------|-----------------|
G|-----------------|-----------------|-----------------|-----------------|
D|-----6-------6---|-8-6-------6-----|-----------------|-8-6-------6-----|
A|-4-4---4-4-4---4-|-----8-6-8---8-6-|-----8-------8---|-----8-6-8---8-6-|
E|-----------------|-----------------|-6-6---6-6-6---6-|-----------------| [x2]

GUITAR LEAD A:                        GUITAR LEAD B:
e|----------------------------|      |-666-6-6---------------------|
B|----------------------------|      |---------6-6---6--6-6-7-6----|
G|-666-8-8-10-8-6------6------|      |-------------8-------------8-|
D|-----------------8-8---6--8-|      |-----------------------------|
A|----------------------------|      |-----------------------------|
E|----------------------------| [x4] |-----------------------------| [x4]

VERSE: Repeat MAIN RIFF [x4]

GUITAR SOLO:
e|-----------------------------------|--------------------|
B|-----------------------------------|--------------------|
G|-6-6-6-6-8-8/10\8-6-8-6--6-------6-|-6-8-8/10-8-6-8-6---|
D|---------------------------8-6-8---|------------------8-|
A|-----------------------------------|--------------------|
E|-----------------------------------|--------------------|

e|------------------------|------------------|
B|------------------------|-9-9----9---------|
G|-6---6-------6-8-6-8/10-|-----10---10-8-10-|
D|---8---8-6-8------------|------------------|
A|------------------------|------------------|
E|------------------------|------------------|

VERSE: Repeat MAIN RIFF [x6]

GUITAR SOLO VARIATION:
e|---------------------------------|--------------------|
B|---------------------------------|--------------------|
G|-6-6-6-6-8-10-8-6-8-6--6-------6-|-6-8-8/10-8-6-8-6---|
D|-------------------------8-6-8---|------------------8-|
A|---------------------------------|--------------------|
E|---------------------------------|--------------------|

e|------------------------|------------------|
B|------------------------|-9-9----9---------|
G|-6---6-------6-8-6-8/10-|-----10---10-8-10-|
D|---8---8-6-8------------|------------------|
A|------------------------|------------------|
E|------------------------|------------------|

OUTRO:
e|-------------------------------------------|      |--------|
B|----9----9----9----11----11----9----9----9-|      |-9------|
G|-10---10---10---10----10----10---10---10---|      |-10-----|
D|-------------------------------------------|      |--------|
A|-------------------------------------------|      |--------|
E|-------------------------------------------| [x4] |--------|

End. Please rate!
Tap to rate this tab
# A B C D E F G H I J K L M N O P Q R S T U V W X Y Z