Song name
# A B C D E F G H I J K L M N O P Q R S T U V W X Y Z

Beach Fossils - Lazy Day tab

Beach Fossils - Lazy Day
From their debut album "Beach Fossils" (Captured Tracks 2010).

Tabbed by Isaac Murguia, October 2013.
Originally uploaded to Ultimate-Guitar.com
YouTube: Goadiroth

INTRO A:
  guitar 1
e|----------------------------------|
B|----------------------------------|
G|----------------------------------|
D|---1---1---1---1----1---1---1---1-|
A|-2---2---2---2----2---2---2---2---|
E|----------------------------------| [x4]
  guitar 2 (comes in on 3rd rep. of 'guitar 1')
e|---------------------|
B|---------------------|
G|-4444-4444-4444-4444-|
D|---------------------|
A|---------------------|
E|---------------------| [x2]

INTRO B:
  guitar 1
e|---------------------------------|----------------------------------|
B|---------------------------------|----------------------------------|
G|---------------------------------|----------------------------------|
D|---4---4---4---4---2---2---2---2-|---1---1---1---1----1---1---1---1-|
A|-6---6---6---6---4---4---4---4---|-2---2---2---2----2---2---2---2---|
E|---------------------------------|----------------------------------| [x2]
  guitar 2
e|--------------------------------------|------------------------------------|
B|--------------------------------------|------------------------------------|
G|-4-444--------------------------------|-4-444------------------------------|
D|-------6-4-4444-----------------------|-------6-4-44464--------------------|
A|---------------7-6-66666-6666-6666-66-|-----------------6-66664-2-222-222--|
E|--------------------------------------|----------------------------------4-|
  guitar 3
e|---------------------------------|--------------------------|
B|-4-4444444-4445-4-4442-4-444-444-|-4-4444447-7775-4-44442-4-|
G|---------------------------------|--------------------------|
D|---------------------------------|--------------------------|
A|---------------------------------|--------------------------|
E|---------------------------------|--------------------------|

VERSE A:
  guitar 1
e|----------------------------------|
B|----------------------------------|
G|----------------------------------|
D|---1---1---1---1----1---1---1---1-|
A|-2---2---2---2----2---2---2---2---|
E|----------------------------------| [x2]
  guitar 2
e|---------------------------------------|
B|---------------------------------------|
G|-4-4444-4444-444-----------------------|
D|----------------6-44444-4-6-4-444-4444-|
A|---------------------------------------|
E|---------------------------------------|

VERSE B:
  guitar 1
e|---------------------------------|----------------------------------|
B|---------------------------------|----------------------------------|
G|---------------------------------|----------------------------------|
D|---4---4---4---4---2---2---2---2-|---1---1---1---1----1---1---1---1-|
A|-6---6---6---6---4---4---4---4---|-2---2---2---2----2---2---2---2---|
E|---------------------------------|----------------------------------| [x3]*
  guitar 2                                                 [x2]*
e|--------------------------------------|------------------------------------------|
B|--------------------------------------|------------------------------------------|
G|-4-444--------------------------------|-4-444------------------------------------|
D|-------6-4-4444-----------------------|-------6-4-444-4h6-4----------------------|
A|---------------7-6-66666-6666-6666-66-|---------------------7-6-66664-2-222-222--|
E|--------------------------------------|----------------------------------------4-|

CHORUS:
  guitar 1
e|---------------4-2----------------2-|----------------4-2-------------------------2-|
B|-4-4-4-4-4-444-----4-444-2-4-4444---|-4-44444-4-4444-----4-444-5-4-4444-2-4-4444---|
G|------------------------------------|----------------------------------------------|
D|------------------------------------|----------------------------------------------|
A|------------------------------------|----------------------------------------------|
E|------------------------------------|----------------------------------------------|

e|--------4-2-------2------------|---------------4-2-------------------|
B|-4-4444-----4-444---4-4444-5-4-|-4444-2-4-4444-----4-444-2-----------|
G|-------------------------------|---------------------------4-444-446-|
D|-------------------------------|-------------------------------------|
A|-------------------------------|-------------------------------------|
E|-------------------------------|-------------------------------------|
  guitar 2
e|---------------------------------|---------------------------------|
B|---------------------------------|---------------------------------|
G|---------------------------------|---------------------------------|
D|---1---1---1---1---1---1---1---1-|---4---4---4---4---4---4---4---4-|
A|---------------------------------|-2---2---2---2---2---2---2---2---|
E|-2---2---2---2---2---2---2---2---|---------------------------------| [x4]
  guitar 3
e|-------------------------------------|
B|-------------------------------------|
G|-------------------4-444444----------|
D|-6-666666-4-444444----------4-444444-|
A|-------------------------------------|
E|-------------------------------------| [x4]

Repeat VERSE B (* guitar 1 = x2 & guitar 2 = x1)
Repeat VERSE A
Repeat VERSE B (* guitar 1 = x2 & guitar 2 = x1)

Repeat CHORUS

Repeat CHORUS (guitar 2 only = x1)
Repeat CHORUS (guitar 3 only = x3)

END NOTE:
e|------------|
B|------------|
G|------------|
D|--6---------|
A|------------|
E|------------|

End. Please rate!
Tap to rate this tab
 
# A B C D E F G H I J K L M N O P Q R S T U V W X Y Z