Song name
# A B C D E F G H I J K L M N O P Q R S T U V W X Y Z

Beach Fossils - Twelve Roses tab

Beach Fossils - Twelve Roses
From their debut album "Beach Fossils" (Captured Tracks 2010).

Tabbed by Isaac Murguia, October 2013.
Originally uploaded to Ultimate-Guitar.com
YouTube: Goadiroth

INTRO LEAD:
          [x3]
e|---------------------|---------------------|
B|---------------------|---5---5---7---7---5-|
G|---4---4---6---6---4-|-6---6---6---6---6---|
D|-6---6---6---6---6---|---------------------|
A|---------------------|---------------------|
E|---------------------|---------------------| [x2]

INTRO RHYTHM:                  1.2.      3.
e|----------------------------|---------|----------|-----------------------------------|
B|----------------------------|---------|----------|-----------------------------------|
G|----------------------------|---------|----------|-----------------------------------|
D|----------------------------|---------|----------|-----------------------------------|
A|----------------------------|-7-7-9-7-|-7-77-9-7-|-----------------------------------|
E|-0-00000--7-77770--9-99-999-|---------|----------|-5-55-5555-55-7-7-2-22-2222-222222-|

** NOTE: He doesn't play the INTRO RHYTHM the exact same way throughout the song.
         You can give or take a few notes, or just play it the way I have it here.
         Sounds good either way. :)

VERSE: Repeat INTRO RHYTHM

BRIDGE:
           [x4]                 [x3]
e|---------------------|---------------------|---------------------|
B|---5---5---7---7---5-|---------------------|---5---5---7---7---5-|
G|-6---6---6---6---6---|---4---4---6---6---4-|-6---6---6---6---6---|
D|---------------------|-6---6---6---6---6---|---------------------|
A|---------------------|---------------------|---------------------|
E|---------------------|---------------------|---------------------|

VERSE: Repeat INTRO RHYTHM

GUITAR SOLO:
e|--------------------------------------|
B|-----------------------------5-555555-|
G|-6-6666-4-----------------------------|
D|----------6-66-7-77-6-66-666----------|
A|--------------------------------------|
E|--------------------------------------| [x4]

OUTRO: Repeat INTRO RHYTHM

End. Please rate!
Tap to rate this tab
# A B C D E F G H I J K L M N O P Q R S T U V W X Y Z