Song name
# A B C D E F G H I J K L M N O P Q R S T U V W X Y Z

Beach Fossils - Golden Age tab

Beach Fossils - Golden Age
From their debut album "Beach Fossils" (Captured Tracks 2010).

Tabbed by Isaac Murguia, October 2013.
Originally uploaded to Ultimate-Guitar.com
YouTube: Goadiroth

INTRO RHYTHM:
e|----------------------------------------|-----------------------------------------|
B|----------------------------------------|-----------------------------------------|
G|----------------------------------------|-----------------------------------------|
D|-7-77-7777-77\6-6/4-4-44-4444-444/6-6/7-|-7-77-7777-777\6-6/4-4-44-4444-444/6-6/7-|
A|----------------------------------------|-----------------------------------------|
E|----------------------------------------|-----------------------------------------| [x2]

INTRO LEAD: (comes in on 2nd rep. of 'intro rhythm')
          [x3]
e|-9-----------------|-12----12----12----12----|      |-9-------|
B|---10---10----10---|----10----10----10----10-|      |---------|
G|------9-----9----9-|-------------------------|      |---------|
D|-------------------|-------------------------|      |---------|
A|-------------------|-------------------------|      |---------|
E|-------------------|-------------------------| [x2] |---------|

Repeat INTRO RHYTHM [x2]

CHORUS LEAD:
e|------------------------------------------|--------------------------------------|
B|--------------------------------12-----12-|--------------------------------------|
G|----13----13----13h14--14----14-----14----|-11----11-----11------9----9-----9----|
D|-14----14----14-----------14--------------|----12----12-----12-----11---11----11-|
A|------------------------------------------|--------------------------------------|
E|------------------------------------------|--------------------------------------| [x4]

CHORUS RHYTHM:                1.2.3.        4.
e|---------------------------|-------------|-----------|
B|---------------------------|-------------|-----------|
G|---------------------------|-6-6-6-9-9-6-|---9999999-|
D|-6-66-666-7-79-96-4-44-444-|-------------|-4---------|
A|---------------------------|-------------|-----------|
E|---------------------------|-------------|-----------|

Repeat INTRO (both guitars)
Repeat INTRO RHYTHM [x2]
Repeat CHORUS (both guitars)

Repeat INTRO (both guitars)
Repeat INTRO RHYTHM [x2]
Repeat CHORUS (both guitars) [x2]

Repeat INTRO (both guitars)

End. Please rate!
Tap to rate this tab
 
# A B C D E F G H I J K L M N O P Q R S T U V W X Y Z