Song name
# A B C D E F G H I J K L M N O P Q R S T U V W X Y Z

Beach Fossils - Wide Awake tab

Beach Fossils - Wide Awake
From their debut album "Beach Fossils" (Captured Tracks 2010).

Tabbed by Isaac Murguia, October 2013.
Originally uploaded to Ultimate-Guitar.com
YouTube: Goadiroth

INTRO:
e|----------------------------------------------------------|
B|----------------------------------------------------------|
G|--------------9-------------------------------------------|
D|-11--11-11-11----9--9-9-9--9-9--7--7-7-7-9--6--6-6-6--6-6-|
A|-7---7--7--7--7--7--7-7-7--7-7--7--7-7-7-7--7--7-7-7--7-7-|
E|----------------------------------------------------------|

VERSE:
  guitar 1 (same as INTRO) [x6]

  guitar 2
e|-------------------------------------------|
B|---------have-not-figured-out--------------|
G|---------this-part-yet---------------------|
D|---------will-update-soon-though-----------|
A|-------------------------------------------|
E|-------------------------------------------| [x6]

BRIDGE:
  guitar 1                                        1.          2.
e|-----------------------------------------------|-----------|------------|
B|-----------------------------------------------|-----------|------------|
G|-----------------------------------------------|-----------|------------|
D|-14-1414--13-14-13-11--11-11-11\9-9-9-6-66-7-6-|-4-444-6-6-|-6/9-999-99-|
A|-0--0-0---0--0--0--0---0--0--0----0-0-0-00-0-0-|-0-000-0-0-|-0---000-00-|
E|-----------------------------------------------|-----------|------------| [x4]
  guitar 2 (comes in on 2nd rep. of guitar 1)
e|-------------------------------|-------------------------------------------|
B|----------12-------14-12-------|-------------------------------------------|
G|----13-------13----------11-13-|-11-13-14--13----11-13-11-----------9----9-|
D|-14----14-------14-------------|--------------14----------11--11-11---11---|
A|-------------------------------|-------------------------------------------|
E|-------------------------------|-------------------------------------------| [x6]

Repeat INTRO [x2]
Repeat VERSE [x4]

OUTRO:
  guitar 1
e|------------------------------------|-------------------------------------|
B|------------------------------------|-------------------------------------|
G|------------------------------------|-------------------------------------|
D|-14-14--13-14-13-11--11-11-11\9-9-9-|-13-13--13-14-13-11--11-11-11--11-11-|
A|-0--0---0--0--0--0---0--0--0----0-0-|-0--0---0--0--0--0---0--0--0---0--0--|
E|------------------------------------|-------------------------------------| [x3]
  guitar 2
e|-------------------------------|-------------------------------------------|
B|----------12-------14-12-------|-------------------------------------------|
G|----13-------13----------11-13-|-11-13-14--13----11-13-11-----------9----9-|
D|-14----14-------14-------------|--------------14----------11--11-11---11---|
A|-------------------------------|-------------------------------------------|
E|-------------------------------|-------------------------------------------| [x4]

End. Please rate!
Tap to rate this tab
# A B C D E F G H I J K L M N O P Q R S T U V W X Y Z