Song name
# A B C D E F G H I J K L M N O P Q R S T U V W X Y Z

Beach House - Gila tab

Song: Gila
Artist: Beach House
Tabbed by: littlejoy
Date: 7/7/09

    Hey guys I just listened to the song multiple times, and this is what SEEMS 100% 
to me. Please go easy on me, seeing as this is my first tab. Feel free to add 
Thanks!

/=slides

Oh and listen to the song for the timing.

e-----------------------------------------------------------------------------|
B-----------------------------------------------------------------------------|
G--------------------------------------------------------7----7------10----10-|
D-----------------------------------------------8-7---7-----------------------|
A--------------8-10-10/12-12-12-10-8--------8-------8---8---8---8/12---12-----|
E-5--5/10-10-------------------------10--10-----------------------------------|


e----------------------------------------------------------------------------|
B----------------------------------------------------------------------------|
G-----------14----14-------14-----------12--------10-------------------------|
D----------------------------------------------------------------------------|
A-12--12/15----15----13/15--------15/13-----13/12----------------------------|
E----------------------------------------------------------------------------|

Cheers, fellow Beach House fans!
Tap to rate this tab
 
# A B C D E F G H I J K L M N O P Q R S T U V W X Y Z