Song name
# A B C D E F G H I J K L M N O P Q R S T U V W X Y Z

Beach House - Silver Soul tab

-----------------------------------------------------------------------------
			     Silver Soul - Beach House
-----------------------------------------------------------------------------
Tabbed by: Ereik
Email: Eremeysen@mail.unomaha.edu

Tuning: Standard

Epic song! The guitar is all slide.. I saw him play it last night. You don't
really need one, just slide your fingers.

Intro/Verse: Play several times...

e|-7-7-14-14-12-12-12-12-7-7-14-14-12-12-12-12-------------------------------|
B|---------------------------------------------------------------------------|
G|--7-7-14-14-12-12-12-12-7-7-14-14-12-12-12-12------------------------------|
D|---------------------------------------------------------------------------|
A|---------------------------------------------------------------------------|
E|---------------------------------------------------------------------------|
	1:We gather matters of the heart, So we can act a fool
	2:The needle on the spinning wheel, Collecting silver coil
	3:The bodies lying in the sand, They're moving in the dark

Bridge:

e|-2-2-12-12-2-2-12-12-------------------------------------------------------|
B|---------------------------------------------------------------------------|
G|--2-2-12-12-2-2-12-12------------------------------------------------------|
D|---------------------------------------------------------------------------|
A|---------------------------------------------------------------------------|
E|---------------------------------------------------------------------------|
	1:It's incomplete without you, the silver soul is running through
	2:It gathers heat without you, Whether or not you're turned from it
	3:It is so quick to let us in, Feel it moving through our skin

Pre-Chorus:

e|-14-14-9-9-14-14-9-9-14-14-14-14-14-14-14-14-------------------------------|
B|---------------------------------------------------------------------------|
G|--14-14-9-9-14-14-9-9-14-14-14-14-14-14-14-14------------------------------|
D|---------------------------------------------------------------------------|
A|---------------------------------------------------------------------------|
E|---------------------------------------------------------------------------|
	1:It's a vision, complete illusion, yeahhh
	2:it's a quick turn, to let us in, yeahhh
	3:It's a sickness, infinite quickness yeahhh


Repeat Verse, Bridge, and Pre-Chorus... So complete lines 1 and 2 before
entering chorus.

Then into Chorus:

e|-7-7-2-2-2-2-2-2-7-7-2-2-9-9-9-9-------------------------------------------|
B|---------------------------------------------------------------------------|
G|--7-7-2-2-2-2-2-2-7-7-2-2-9-9-9-9------------------------------------------|
D|---------------------------------------------------------------------------|
A|---------------------------------------------------------------------------|
E|---------------------------------------------------------------------------|
	It is happening again
	It is happening again
	It is happening again
	It is happening again...
Tap to rate this tab
 
# A B C D E F G H I J K L M N O P Q R S T U V W X Y Z