Song name
# A B C D E F G H I J K L M N O P Q R S T U V W X Y Z

Beach House - Norway tab

-------------------------------------------------------------------------------
			     Norway - Beach House
-------------------------------------------------------------------------------
Tabbed by: The Incredulous Noah McMullen
Email:al_munchmelon@comcast.net

Tuning: Standard, capo on 5th fret

INTRO/CHORUS:
Kind of a tricky rhythm here. While the rest of the song is in 4/4 time, the guitar part 
in something closer to 6/8 time.
Listen to the song to understand it fuller.

e|-------0------0------0------0------0------0------0------0--|
B|-----1------1------1------1------0------0------0------0----|
G|--2------2------2------2------0------0------0------0-------|
D|-----------------------------------------------------------|   x8
A|-----------------------------------------------------------|
E|-----------------------------------------------------------|

VERSE: The guitarist uses a lot of slide-type stuff here. I use a little bit of constant 
on my whammy bar, pushing it harder and releasing it as I see fit. Then, just use a 
C arpeggio, like this:


|---0----|---0----|
|-----1-1|-----1-1|
|--0---0-|0-0---0-|
|--------|--------|
|--------|--------|


Repeat until the chorus begins. At that point, slide up to the 9th fret on the G string, 
play the intro again.

That's it, I guess. The most important thing is to slide as much as necessary. Have fun.
Tap to rate this tab
 
# A B C D E F G H I J K L M N O P Q R S T U V W X Y Z