Song name
# A B C D E F G H I J K L M N O P Q R S T U V W X Y Z

Beach House - 10 Mile Stereo tab

10 Mile Stereo by Beach house
Teen Dream (2010)

Tabbed by: Steph J
Email: steph.is.not@gmail.com



Tuning: Standard Tuning


Intro
e|-------13----13----13----13----13----13----13----13------------------------|
B|-----13----13----13----13----13----13----13----13--------------------------|
G|--/13----13----13----13----13----13----13----13----------------------------|
D|---------------------------------------------------------------------------|
A|---------------------------------------------------------------------------|
E|---------------------------------------------------------------------------|

Verse (repeat twice)
e|-------13----13----13----13------11----11----11----11----9-----9-----9----9|
B|-----13----13----13----13------11----11----11----11----11----11----11----11|
G|---13----13----13----13---13/11----11----11----11----10----10----10----10--|
D|---------------------------------------------------------------------------|
A|---------------------------------------------------------------------------|
E|---------------------------------------------------------------------------|

e|-------9-----9----9------9-------------------------------------------------|
B|-----11----11----11----11--------------------------------------------------|
G|---10----10----10----10----------------------------------------------------|
D|---------------------------------------------------------------------------|
A|---------------------------------------------------------------------------|
E|---------------------------------------------------------------------------|

e|-------13----13----13----13------11----11----11----11----18----18----18---18--|
B|-----13----13----13----13------11----11----11----11----18----18----18----18---|
G|--/13----13----13----13----13/11----11----11----11---/18----18----18----18----|
D|------------------------------------------------------------------------------|
A|------------------------------------------------------------------------------|
E|------------------------------------------------------------------------------|

e|-------18----18----18----18------------------------------------------------|
B|-----18----18----18----18--------------------------------------------------|
G|---18----18----18----18----------------------------------------------------|
D|---------------------------------------------------------------------------|
A|---------------------------------------------------------------------------|
E|---------------------------------------------------------------------------|

e|-------13----13----13----13------11----11----11----11----9-----9-----9----9|
B|-----13----13----13----13------11----11----11----11----11----11----11----11|
G|---13----13----13----13---13/11----11----11----11----10----10----10----10--|
D|---------------------------------------------------------------------------|
A|---------------------------------------------------------------------------|
E|---------------------------------------------------------------------------|

e|-------9-----9----9------9-------------------------------------------------|
B|-----11----11----11----11--------------------------------------------------|
G|---10----10----10----10----------------------------------------------------|
D|---------------------------------------------------------------------------|
A|---------------------------------------------------------------------------|
E|---------------------------------------------------------------------------|

e|-------13----13----13----13------11----11----11----11----18----18----18---18--|
B|-----13----13----13----13------11----11----11----11----18----18----18----18---|
G|--/13----13----13----13----13/11----11----11----11---/18----18----18----18----|
D|------------------------------------------------------------------------------|
A|------------------------------------------------------------------------------|
E|------------------------------------------------------------------------------|

e|-------16----16----16----16----16----16----16----16------------------------|
B|-----18----18----18----18----18----18----18----18--------------------------|
G|---17----17----17----17----17----17----17----17----------------------------|
D|---------------------------------------------------------------------------|
A|---------------------------------------------------------------------------|
E|---------------------------------------------------------------------------|

Chorus (you can figure out the picking & timing)
e|----16----18----20------16----18----20------16----18----20-----------------|
B|---------------------------------------------------------------------------|
G|---------------------------------------------------------------------------|
D|---------------------------------------------------------------------------|
A|---------------------------------------------------------------------------|
E|---------------------------------------------------------------------------|

e|----18----13----9----11----16----------------------------------------------|
B|---------------------------------------------------------------------------|
G|---------------------------------------------------------------------------|
D|---------------------------------------------------------------------------|
A|---------------------------------------------------------------------------|
E|---------------------------------------------------------------------------|








************************************

| /   slide up
| \   slide down
| h   hammer-on
| p   pull-off
| ~   vibrato
| +   harmonic
| x   Mute note
| b   Bend
| pb  Pre-bend
| br  Bend release
| pbr Pre-bend release
| brb Bend release bend

************************************
Tap to rate this tab
 
# A B C D E F G H I J K L M N O P Q R S T U V W X Y Z