Beach House - Take Care tab

-----------------------------------------------------------------------------
			     TAKE CARE - Beach House
-----------------------------------------------------------------------------
Tabbed by: Andy
Email: ciurro@wisc.edu

Tuning: 1/2 Step Down

This is my first tab, so don't hate!

*NOTE* You can play this without down-tuning your guitar, as well. Just play each note 
down one step. (E.g. instead of 10, 11 on the down tune, play 9, 10 on standard tuning).


Intro

eb|---10--10--10-|--9--9--9-|--7--7--7-|--5--5--5-|
Bb|--------------|----------|----------|----------|
Gb|-11--11--11---|-9--9--9--|-7--7--7--|-6--6--6--|x2
Db|--------------|----------|----------|----------|
Ab|--------------|----------|----------|----------|
Eb|--------------|----------|----------|----------|

Verse

eb|---10--10--10-|--10--10--10-|-12--12--12-|-14--14--14-|-10--10--10-|
Bb|--------------|-------------|------------|------------|------------|
Gb|-11--11--11---|11--11--11---|12--12--12--|14--14--14--|11--11--11--|
Db|--------------|-------------|------------|------------|------------|
Ab|--------------|-------------|------------|------------|------------|
Eb|--------------|-------------|------------|------------|----------- |

eb|---9--9--9-|--7--7--7-|--5--5--5-|--7--7--7-|--7--7--7|--9--9--9|--9--9--9|
Bb|-----------|----------|----------|----------|---------|---------|---------|
Gb|-9--9--9---|7--7--7---|6--6--6---|7--7--7---|7--7--7--|9--9--9--|9--9--9--|
Db|-----------|----------|----------|----------|---------|---------|---------|
Ab|-----------|----------|----------|----------|---------|---------|---------|
Eb|-----------|----------|----------|----------|---------|---------|---------|

Then play the intro part once more, followed by the verse, repeating the last 4 bars the 
second time through.

Chorus

eb|---14--14--14|--14--14--14|--16--16--16|--14--14--14|
Bb|-------------|------------|------------|------------|
Gb|-14--14--14--|14--14--14--|15--15--15--|14--14--14--|x2
Db|-------------|------------|------------|------------|
Ab|-------------|------------|------------|------------|
Eb|-------------|------------|------------|------------|


eb|---10--10--10-|--10--10--10|--9--9--9-|--7--7--7-|--9--9--9-|--9--9--9|
Bb|--------------|------------|----------|----------|----------|---------|
Gb|-11--11--11---|11--11--11--|-9--9--9--|-7--7--7--|-9--9--9--|-9--9--9-|
Db|--------------|------------|----------|----------|----------|---------|
Ab|--------------|------------|----------|----------|----------|---------|
Eb|--------------|------------|----------|----------|----------|---------|

eb|---12--12--12-|--12--12--12|
Bb|--------------|------------|
Gb|-12--12--12---|-12--12--12-|
Db|--------------|------------|
Ab|--------------|------------|
Eb|--------------|------------|

Interlude (I'm not sure if this is how it's actually played, but playing this sounds 
really nice)

eb|------------|------------|------------|------------|------------|
Bb|-3-----5----|-7-----10---|-7-----5----|-7-----7----|-5-----7----|
Gb|---4-----4--|---7-----7--|---6-----6--|---7-----7--|---6-----6--|
Db|-----5-----5|-----9-----9|-----7-----7|-----9-----9|-----7-----7|
Ab|------------|------------|------------|------------|------------|
Eb|------------|------------|------------|------------|------------|

eb|------------|------------|------------|
Bb|-5-----3----|-10----7----|-5-----5----|
Gb|---4-----4--|---7-----7--|---6-----6--|
Db|-----5-----5|-----9-----9|-----7-----7|
Ab|------------|------------|------------|
Eb|------------|------------|------------|

And that's all you need to know to play this song! After the interlude, you basically 
start back at the beginning and repeat everything with some really small changes in 
repeats and whatnot, but you should listen to the song to get those down.
Tap to rate this tab
 
# A B C D E F G H I J K L M N O P Q R S T U V W X Y Z