Song name
# A B C D E F G H I J K L M N O P Q R S T U V W X Y Z

Beach House - Heart Of Chambers tab

ARTIST:  Beach House
TITLE:   Heart of Chambers
ALBUM:   Devotion
YEAR:    2008

Tuning: Eb Ab Db Gb Bb Eb (Tune your guitar half-step down)

INTRO

      C           E7                Am          G7                
      E  E  E  E  S  S S S E  E     E  E  E  E  S  S S S E  E     
Eb||-----0-----0-------0---0-----|-----0-----0-------3---3------||
Bb||--------1-----------------3--|--------1------------0----6---||
Gb||--0-----------0h-1---1-------|--2-----------2s-4-----------*||
Db||-----------------------------|-----------------------------*||
Ab||-----------------------------|------------------------------||
Eb||-----------------------------|------------------------------||


VERSE

  C           E7               Am          G7               
  E  E  E  E  S  S E  E  E     E  E  E  E  S  S S S S S E   
-----0-----0-------0-----0--|-----0-----0-------0---0---0--|
--------1-------------0-----|--------1------------3---3----|
--0-----------0h-1----------|--2-----------2s-4------------|
----------------------------|------------------------------|
----------------------------|------------------------------|
----------------------------|------------------------------|


  C           E7                 Am          G            
  E  E  E  E  S  S E  E  S S     E  E  E  E  E  E  E  E   
-----0-----0-------0-----0----|-----0-----0--------------|
--------1-------------0-------|--------0--------3--------|
--0-----------0h-1---------1h-|--2-----------0-----4-----|
------------------------------|-----------------------5--|
------------------------------|--------------------------|
------------------------------|--------------------------|


  C           E7               Am          G              
  E  E  E  E  S  S E  E  E     E  E  E  E  S  S E  E  E   
-----0-----0-------0-----0--|-----0-----0-------0--------|
--------1-------------0-----|--------0-------------3-----|
--0-----------0h-1----------|--2-----------2s-4-------4--|
----------------------------|----------------------------|
----------------------------|----------------------------|
----------------------------|----------------------------|


  C           E7               Am          G/B               
  E  E  E  E  S  S E  E  E     E  E  E  E  S   S S  S E  E   
-----0-----0-------0-----0--|-----0-----0-------------------|
--------1-------------0-----|--------0----------------------|
--0-----------0h-1----------|--2-----------3h--4-3h-4-------|
----------------------------|-------------------------5-----|
----------------------------|----------------------------2--|
----------------------------|-------------------------------|


CHORUS

  C          E7               Am         E7             
  E  E  Q    E  E  S  S E     E  E  Q    E  E  S  S E   
---------------------------|---------------------------|
---------------------------|---------------------------|
---------------------------|---------------------------|
---------------------------|---------------------------|
--3--3------------------2--|------------------------2--|
-------------0--0--3h-4----|--5--5-------0--0--3h-4----|


  C          E7             
  E  E  Q    E  E  S  S E   
---------------------------|
---------------------------|
---------------------------|
---------------------------|
--3--3------------------2--|
-------------0--0--3h-4----|

on 1st chorus:

  Am                         D7                       
  E  E  E  E  E  E  E  E     E  E  E  E  E  E  E  E   
--------------------------|--------------------------|
--------------------------|-----------5--7--8--7-----|
--------------------------|-----5--7--------------7--|
--------------------5--7--|--9-----------------------|
-----------5--7--9--------|--------------------------|
--5--7--8-----------------|--------------------------|


  G                    Am          G7               
  H        H           E  E  E  E  S  S S S E  E    
--------------------|-----0-----0-------3---3-----||
--------------------|--------1------------0----6--||
--------------------|--2-----------2s-4-----------||
--5-----------------|-----------------------------||
--------------------|-----------------------------||
--------------------|-----------------------------||

on 2nd chorus:

    Am7                         Am6                         
    E   E  E  E  E  E  E  E     E   E  E  E  E  E  E  E   3x
|----------------------------|----------------------------||
|---8------8-----8--8-----8--|--7------------7--7---------||
|*------------5--------------|------5-----5-----5-----5--*||
|*------7--------------7-----|---------7-----------7-----*||
|---0------------------------|----------------------------||
|----------------------------|----------------------------||


  G                          G/F                             
  E  E  E  E  E  E  E  E     E   E  E  E  E  E  E  E    
--------------------------|---------------------------|
--------3-----------3-----|---------3-----------3-----|
-----4-----4-----4-----4--|------4-----4-----4-----4--|
--5-----------5-----------|--3------------3-----------|
--------------------------|---------------------------|
--------------------------|---------------------------|


OUTRO (with tremolo picking)


  C                   C        E7   
  W                   H        Q    Q    
-------------------|---------------------|
-------------------|---------------------|
-------------------|--5--------7----4----|
-------------------|---------------------|
-------------------|---------------------|
-------------------|---------------------|


  Am        Fm6           C         E7            Am                
  H         Q    Q        H         Q    Q        W                 
----------------------|-----------------------|--------------------|
----------------------|-----------------------|--------------------|
--9--------10----7----|--12--------13----9----|--14----------------|
----------------------|-----------------------|--------------------|
----------------------|-----------------------|--------------------|
----------------------|-----------------------|--------------------|


  C        E7           Am        Fm6           C         E7         
  H        Q    Q       H         Q    Q        H         Q    Q     
---------------------|----------------------|-----------------------|
---------------------|----------------------|-----------------------|
--5--------7----4----|--9--------10----7----|--12--------13----9----|
---------------------|----------------------|-----------------------|
---------------------|----------------------|-----------------------|
---------------------|----------------------|-----------------------|


   Am                     C         E7           Am        Fm6        
   H.            Q        H         H            H         Q    Q     
----------------------|----------------------|-----------------------|
----------------------|----------------------|-----------------------|
--14------------16----|--17--------16--------|--14--------10----7----|
----------------------|----------------------|-----------------------|
----------------------|----------------------|-----------------------|
----------------------|----------------------|-----------------------|


   C         E7            Am                         C         E7        
   H         Q    Q        Q     Q     Q     Q        H         H         
-----------------------|--------------------------|----------------------|
-----------------------|--------------------15----|--17--------12--------|
--12--------13----9----|--14----16----17----------|----------------------|
-----------------------|--------------------------|----------------------|
-----------------------|--------------------------|----------------------|
-----------------------|--------------------------|----------------------|


   Am        Fm6          C         E7           Am                
   H         H            H         H            W                 
----------------------|----------------------|--------------------|
--13------------------|----------------------|--------------------|
------------13--------|--14--------16--------|--17----------------|
----------------------|----------------------|--------------------|
----------------------|----------------------|--------------------|
----------------------|----------------------|--------------------|


   C                  
   W                  
--------------------||
--------------------||
--17----------------||
--------------------||
--------------------||
--------------------||



INTRO (C E7 Am G7)

VERSE

In your heart of chambers
where you sit
with your picture books
and your ancient wit
In that nook I found you
so old and tired
would you be the one to carry me?

CHORUS + on 1st chorus (C E7 Am E7 | ... | Am D7 G)

I'd like to be someone
you could finally learn to love again

VERSE (C E7 Am G)

Made our iron bed side
cold as graves
so we stoke the organs
that may comfort grace
and they conjured spirits
to make you smile
would you be my long time baby?

CHORUS + on 2nd chorus  (C E7 Am E7 | ... | Am7 Am6 | ... | G G/F)

I'd like to be someone
you could finally learn to 
breathe 
at our sides
let's take the time
to mend these smiles
to get them
could make it home
love is surprises
live our own lives

OUTRO (C E7 Am Fm6 | C E7 Am)

In our beds we're the lucky ones
filled with the sun
In our beds we're the lucky ones
fill us with the sun
Tap to rate this tab
 
# A B C D E F G H I J K L M N O P Q R S T U V W X Y Z