Song name
# A B C D E F G H I J K L M N O P Q R S T U V W X Y Z

Beach House - Wild tab

------------------------------------------------------------------------------
                             WILD - Beach House
------------------------------------------------------------------------------


Tuning: 1/2 step down (Eb Ab Db Gb Bb Eb)

e|---------------------------------------------------------------------------|
B|-11---11---11---11---11------11---11---11---11---11-- 11(x10)--------------|
G|---10---10---10---10---10h12---12---12---12---12---12---10(X10)------------|
D|---------------------------------------------------------------------------|
A|---------------------------------------------------------------------------|
E|---------------------------------------------------------------------------|

e|---------------------------------------------------------------------------|
B|-/11---11---11---11---11------11---11---11---11---11-- 11(x10)-------------|
G|----10---10---10---10---10h12---12---12---12---12---12---10(X10)-10--------|
D|---------------------------------------------------------------------------|
A|---------------------------------------------------------------------------|
E|---------------------------------------------------------------------------|

e|---------------------------------------------------------------------------|
B|----3----------------------------------------------------------------------|
G|------3--------------------------------------------------------------------|
D|-/5-----(5)----------------------------------------------------------------|
A|---------------------------------------------------------------------------|
E|---------------------------------------------------------------------------|

e|---------------------------------------------------------------------------|
B|-/11---11---11---11---11------11---11---11---11---11-- 11(x10)-------------|
G|----10---10---10---10---10h12---12---12---12---12---12---10(X10)-10--------|
D|---------------------------------------------------------------------------|
A|---------------------------------------------------------------------------|
E|---------------------------------------------------------------------------|

e|---------------------------------------|
B|----3----------------------------3-----|
G|------3----------------------------3---|
D|-/5-----(5)--------------------5-------|
A|---------------------------------------|
E|---------------------------------------|

e|------------------------3-------------------------------------|
B|-------3--------------6---6---------6-------------3-----------|
G|---3-----3--------3-------------5-----5-3-----3-----3---------|
D|-5---5-----5----5---5---------6---6---------5---5-----5-------| X 2
A|--------------------------------------------------------------|
E|--------------------------------------------------------------|

Chords (down stroke)

e|--3--3--3--3----3--3--3--3----3--3--------------------|
B|--1--3--4--4----1--3--4--4----1--3--------------------|
G|--1--3--3--5----1--3--3--5----1--3--------------------|
D|--1--3--5--5----1--3--5--5----1--3---5----------------|
A|------------------------------------------------------|
E|------------------------------------------------------|

Tremolo bridge

e|-----------------------------|
B|-18b20---18---18b20---18-----|
G|-----------------------------|
D|-----------------------------|
A|-----------------------------|
E|-----------------------------|

e|------------------------3-------------------------------------|
B|-------3--------------6---6---------6-------------------------|
G|---3-----3--------3-------------5-----5-3-----3---3-----------|
D|-5---5-----5----5---5---------6---6---------5---5---6--5------| X 2
A|--------------------------------------------------------------|
E|--------------------------------------------------------------|

Tremolo and slides up outro

e|------------------------------------|
B|-4--3--8--6--9--8--11--18--18b20----| then keep on alterning 18 & 18b20 tremolo 
G|------------------------------------|
D|------------------------------------|
A|------------------------------------|
E|------------------------------------|


************************************

| /   slide up
| \   slide down
| h   hammer-on
| p   pull-off
| ~   vibrato
| +   harmonic
| x   Mute note
| b   Bend
| pb  Pre-bend
| br  Bend release
| pbr Pre-bend release
| brb Bend release bend

************************************
Tap to rate this tab
# A B C D E F G H I J K L M N O P Q R S T U V W X Y Z