Song name
# A B C D E F G H I J K L M N O P Q R S T U V W X Y Z

Beady Eye - Bring The Light tab

INTRO "BRING THE LIGHT" by BEADY EYE

Look this tab in my youtube video => 
http://www.youtube.com/watch?v=b74glFtYDvM

e|-------------------------|
B|-13b15b13----------------|
G|----------14-12-10-------|
D|-------------------13-10-|
A|-------------------------|
E|-------------------------|

e|----------------------13-|
B|-13b15b13----15-13-15-13-|
G|----------14-------------|
D|-------------------------|
A|-------------------------|
E|-------------------------|

e|------------------------------------------------------------|
B|-13b15b13---------------------------------------------------|
G|----------14-12-10---------------------------------------10-|
D|-------------------13-10-8-8-8-10-10b12b10b12-10b12b10-8-10-|
A|------------------------------------------------------------|
E|------------------------------------------------------------|

e|-------------------------|
B|-13b15b13----------------|
G|----------14-12-10-------|
D|-------------------13-10-|
A|-------------------------|
E|-------------------------|

e|----------------------13-|
B|-13b15b13----15-13-15-13-|
G|----------14-------------|
D|-------------------------|
A|-------------------------|
E|-------------------------|

e|---------------------------------------------------------------------|
B|-13b15b13------------------------------------------------------------|
G|----------14-12-10------------------------------------------------10-|
D|-------------------13-10-8-8-8-10-10b12-12-12-12-12-12-10b12b10-8-10-|
A|---------------------------------------------------------------------|
E|---------------------------------------------------------------------|
Tap to rate this tab
 
# A B C D E F G H I J K L M N O P Q R S T U V W X Y Z