Song name
# A B C D E F G H I J K L M N O P Q R S T U V W X Y Z

Beady Eye - The Roller tab

Beady Eye - The Roller guitar solo

find this tab in the youtube video http://www.youtube.com/watch?v=YEyxizgLSIw
e|---------------------------|
B|-12b13b12-10-9-------------|
G|-13b14b14-11-9-9-----9-9---|
D|---------------11b12-9-7-7-|
A|-------------------------9-|
E|---------------------------|

e|---------------------------|
B|-12b13b12-10-9-------------|
G|-13b14b14-11-9-9-----9-9---|
D|---------------11b12-9-7-7-|
A|-------------------------9-|
E|---------------------------|

e|---------------------------------------------------------------------------------|
B|-12b13b12-10-9-------------------------------------------------------------------|
G|-13b14b14-11-9-9-----9-9---------------------------------------------------------|
D|---------------11b12-9-7-7-9~~-11b12-9~~-11b12-9~~-7-9~~-11b12-9~~-7-9-9-9-9-7~~-|
A|-------------------------9-------------------------------------------------------|
E|---------------------------------------------------------------------------------|
Tap to rate this tab
 
# A B C D E F G H I J K L M N O P Q R S T U V W X Y Z