Beady Eye - Kill For A Dream tab

Kill for a Dream by Beady Eye (Different Gear, Still Speeding, 2011)
Song written by Andy Bell.

SOLO (1:30):

e|---------------------------------------------------------------------------|
B|------------------------------------------------11-------------------------|
G|--10b(12)r10------------------10b(12)r10------------12---------------------|
D|-------------12--10----------------------12--10----------------------------|
A|--------------------13--10-------------------------------------------------|
E|---------------------------------------------------------------------------|

e|---------------------------------------------------------------------------|
B|---------------------------------------------------------------------------|
G|--10b(12)r10---------------------------------------------------------------|
D|-------------12--10--------------------------------------------------------|
A|--------------------13--10-------------------------------------------------|
E|---------------------------------------------------------------------------|
Tap to rate this tab
 
# A B C D E F G H I J K L M N O P Q R S T U V W X Y Z