Beady Eye - The Morning Son tab

The Morning Son by Beady Eye (Different Gear, Still Speeding, 2011)
Song written by Liam Gallagher.


###CAPO SECOND FRET###

E: 022100
Emaj7: 021100
A: x02220
Am: x02210
B: x24442


Intro, Verse:

E   Emaj7   A   Am   

E   B   Am   E


Part before Solo, Outro:

Am   E



Solo (2:30-3:00):

e|---------------------------------------------------------------------------|
B|---------------------------------------------------------------------------|
G|--15\13---13\11---11/13---13/15---15/18---18\15---15-----------------------|
D|---------------------------------------------------------------------------|
A|---------------------------------------------------------------------------|
E|---------------------------------------------------------------------------|

e|---------------------------------------------------------------------------|
B|---------------------------------------------------------------------------|
G|--15\13---13\11---11/13---13/14---14\13---13\11---11-----------------------|
D|---------------------------------------------------------------------------|
A|---------------------------------------------------------------------------|
E|---------------------------------------------------------------------------|

e|---------------------------------------------------------------------------|
B|---------------------------------------------------------------------------|
G|--15\13---13\11---11/13---13/15---15/18---18\15---15-----------------------|
D|---------------------------------------------------------------------------|
A|---------------------------------------------------------------------------|
E|---------------------------------------------------------------------------|

e|---------------------------------------------------------------------------|
B|---------------------------------------------------------------------------|
G|--15\13---13\11---11/13---13/15---15\13---13\11---11-----------------------|
D|---------------------------------------------------------------------------|
A|---------------------------------------------------------------------------|
E|---------------------------------------------------------------------------|
Tap to rate this tab
 
# A B C D E F G H I J K L M N O P Q R S T U V W X Y Z