Song name
# A B C D E F G H I J K L M N O P Q R S T U V W X Y Z

Beady Eye - The Morning Son chords

Highlighted       Show chord diagrams
My first ever tab. great song.

Chords- i don't know if i've given them the right names but anyway...


    Fm.  c#.  b.  F#
e --2----9----7----2-------------------------| 
B --2----9----7----3-------------------------|
G --3---10----8----4-------------------------|
D --4---11----9----4-------------------------|
A --4---11----9----2-------------------------|
E --2----9----7------------------------------|

intro.  Fm   c#  b  F#,  Fm  c#  F#*  Fm 

*when you play f# here, play this; 

D= strum down
U= strum up

    D  DDU  DU  UDD
e --2--222--22--000---|
B --3--333--22--000---|
G --4--444--44--444---|
D --4--444--44--444---|
A --2--222--22--222---|
E --------------------|

Fm 
You'll never know 
c# 
Unless you try
b
Youre blinded by what 
F#
You idolise

Fm
I stand alone 
c#
Nobody knows 
F#
The morning 
Fm
son has rose


chord progression repeats, until

Fm
I stand alone 
c#
Nobody knows 
F#
The morning 
Fm
son has rose 
F#
The morning 
Fm
son has rose
 
and repeat F# then Fm over until the verse comes again.
Tap to rate this tab
 
# A B C D E F G H I J K L M N O P Q R S T U V W X Y Z