Song name
# A B C D E F G H I J K L M N O P Q R S T U V W X Y Z

Beady Eye - Three Ring Circus tab

Beady Eye
Three Ring Circus
Tab by Eneko Townshend

E -----------------------------------------------------------------|
B -----------------------------------------------------------------|
G -----------------------------3-5)-5)-5)-5)-5-3-5-3---------------|
D -----------------3-5-3-----5-----------------------5-5-5-3-------|
A ----3)-1-----3h5-------5-3---------------------------------5/3-1-|
E --3------3-1-----------------------------------------------------|

E ------------------------------------13)-15)-13)-13)-15)-15)-15)--|
B ---------------12h13-12-13-15-15/10------------------------------|
G ---------10-12---------------------------------------------------|
D --/10-10---------------------------------------------------------|
A -----------------------------------------------------------------|
E -----------------------------------------------------------------|
Tap to rate this tab
 
# A B C D E F G H I J K L M N O P Q R S T U V W X Y Z