Song name
# A B C D E F G H I J K L M N O P Q R S T U V W X Y Z

Beady Eye - Millionaire tab

Beady Eye
Millionaire
Tab by Eneko Townshend

C   (x32010)
F   (xx321x)
G   (320033)
A#  (xx876x)
D#  (xx886x)
F/E (xx201x)
Dm  (xx0231)

Intro Riff

E ---------------------------|
B --1-1-1-1-1-1-1-1-1-1-1-1--|
G --0-0-3-2-0-0-3-2-0-0-0-0--|
D --2-2-x-x-x-x-x-x-x-3-x-x--|
A --3-3-3-3-3-3-3-3-3-3-3-3--|
E ---------------------------|

E -------------------------|
B -------------------------|
G --2)-2-0-0-2)-2-0---0----|
D ------------------3------|
A ----------------------3--|
E -------------------------|

C                                 F
Sweet Cadaques to Figueres a 40 minute ride
G            A#    F        Intro Riff
You drive it and I spend it looking out my window
C                                          F
Sweet Salvador the shadows painted and the light he saw
G                A#     F          Intro Riff
The way I see it now so clear like diamonds on the water

G                          D# A#  F
A medal with me and you?ll meddle with yourself
            F/E Dm
For there is a higher wealth
                  Intro Riff
Love them like a millionaire
G              D# A#  F
Medals on your premonition rags
             F/E  Dm
You just need to know yourself
                     Intro Riff
And love them like a millionaire
                        E ------------------------------|
                        B --10)-10-8-8-10)-10-8----8----|
                        G ----------------------10------|
                        D ---------------------------10-|
                        A ------------------------------|
                        E ------------------------------|

Her faded glamour out of season as the ages pass
Desperate for inspiration as the months run down like rain
Sweet sound the door I stood outside your door
And saw the light out shining in the summer like the way the light shines out the water

A medal with me and you?ll meddle with yourself
For there is a higher wealth
Love them like a millionaire
Medals on your premonition rags
You just need to know yourself
And love them like a millionaire

G        D# A#  F        F/E  Dm      G    Intro Riff
Like a lover, like a lover, like a lover

A medal with me and you?ll meddle with yourself
For there is a higher wealth
Love them like a millionaire
Medals on your premonition rags
You just need to know yourself
And love them like a millionaire
Tap to rate this tab
 
# A B C D E F G H I J K L M N O P Q R S T U V W X Y Z