Beady Eye - Four Letter Word tab

BEADY EYE
Four Letter Word
Tabbed by IL


Played after the intro is repeted after the first chorus.


e|--------------8---10------------------------------------------------------|
B|-----8h10------------10---------------8--10-------------------------------|
G|-7/9------------------------------7/9--------------7-(9)-7p5h7------------|
D|--------------------------------------------------------------------------|
A|--------------------------------------------------------------------------|
E|--------------------------------------------------------------------------|

e|--------------------------------------------------------------------------|
B|----------------------------------------------------------------1(2)hold--|
G|--7-(9)hold-7-5-7-5------3(4)hold-3-2-3-2----0-0h2p0h2p02....-------------|
D|--------------------------------------------------------------------------|
A|--------------------------------------------------------------------------|
E|--------------------------------------------------------------------------|

e|-----------5--5-8------------5---5-8--------------------------------------|
B|--------------------------------------------------------------------------|
G|-7-(9)hold---7-----7-(9)-hold---7-------7-(9)-7--5-7---5-7-(9)-7--5-7-----|
D|--------------------------------------------------------------------------|
A|--------------------------------------------------------------------------|
E|--------------------------------------------------------------------------|

e|------8--10-8-------12-8-----10-------------------------------------------|
B|-8-10---------10--------10------8--10------7-8-7-8-7---7-----7-(8)-7------|
G|-----------------------------------------------------9-----9---------9-7h9|
D|--------------------------------------------------------------------------|
A|--------------------------------------------------------------------------|
E|--------------------------------------------------------------------------|
Tap to rate this tab
 
# A B C D E F G H I J K L M N O P Q R S T U V W X Y Z