Song name
# A B C D E F G H I J K L M N O P Q R S T U V W X Y Z

Beady Eye - Ballroom Figured tab

Beady Eye
Ballrom Figured

x - muted

Verse:

e|--3---3---3---|
B|--3---3---3---|
G|--0---0---0---|
D|--0---0---2---|
A|--0---x---2---|
E|--3---2---0---|

Chorus:

"Did we ever find a way"...

e|--3---3---|
B|--3---3---|
G|--0---2---|
D|--2---0---|
A|--3-------|
E|----------|


"To steer..."

e|-(3)--3---3---|
B|--3---3---3---|
G|--2---0---2---|
D|--0---2---0---|
A|--2---2---0---|
E|--x---0-------|
        *   *

* - hit one note, then all chord

(3) is optional, you can "play" x too.


"Couse we're just passing through...."

e|--3---3---3---3--|
B|--3---3---3---3--|
G|--0---2---2---0--|
D|--2---0---2---2--|
A|--3-------0---3--|
E|-----------------|

and verse again.


And now break; *Em7 chord* "Some people change..."


e|--2---3---2---|
B|--0---3---0---|
G|--2---0---2---|
D|--0---2---0---|
A|--2---3---2---|
E|--x-------x---|

"soo long, so long"

e|--3---3---|
B|--3---3---|
G|--2---0---|
D|--2---2---|
A|--0---3---|
E|----------|

Have fun.
Tap to rate this tab
 
# A B C D E F G H I J K L M N O P Q R S T U V W X Y Z