Beans - Only Natural tab

Song: Only Natural
Band: Beans
Albm: Sundown

Intro:
|   D     F       C       D      A#     F    C        D 
|-------------------------------------------------------|
|--------------------------------10--10--10--10---------|
|---7-7-9-10-9-10-12-10-9-10--12-12b-12b-12b----12-10-7-|
|--7----------------------------------------------------|
|-------------------------------------------------------|
|-------------------------------------------------------|
|   D     F       C       D      A#  F       C        D
|---------------------------------------------------------|
|------------------------------------13---13-15-15-13-15--|
|---7-7-9-10-9-10-12-10-9-10--12-14-----14----------------|
|--7------------------------------------------------------|
|---------------------------------------------------------|
|---------------------------------------------------------|

Verse:
|  D    F        C    D    A#   F        C    D       
|----------------------------------------------------|
|---***---******--***--***--***---******--***--***---|
|--7777-10101010-5555-7777-3333-10101010-5555-7777---|
|--7777-10101010-5555-7777-3333-10101010-5555-7777---|
|--5555-8-8-8-8--3333-5555-1111-8-8-8-8--3333-5555---|
|----------------------------------------------------|

Chorus:
|  D    F        C    A    A#   A    F    C  D     
|--------------------------------------------------|----|
|--------------------------------------------------|----|
|--7777-10101010-5555-2222-3333-2222-1010-55-7777--|----|
|--7777-10101010-5555-2222-3333-2222-1010-55-7777--|-x2-|
|--5555-8-8-8-8--3333-0000-1111-0000-8-8--33-5555--|----|
|--------------------------------------------------|----|
|  F    C  D     F    C  A                 
|------------------------------------------|
|------------------------------------------|
|--1010-55-7777--1010-55-2222222222222222--|
|--1010-55-7777--1010-55-2222222222222222--|
|--8-8--33-5555--8-8--33-0000000000000000--|
|------------------------------------------|

Order:
Intro       x1
Verse 1     x2
Chorus      x1
Verse 2     x2
Chorus      x1
Intro       x1
Verse 3     x2
Chorus      x1
Chorus 2    x1

Verse 1
The view from a bird's eye is disturbing and bleak
The average citizen is an average indeed
The forces of history designed for us all
The apparent lack of value for the individual

Chorus
And it's only natural you know
The state of regression is the fate of us all
And it's only natural you see
A state perpetuated by our common history
Our common history
It's there for all to see

Verse 2
But do we want to consider the possibility
The right or wrong are merely divided semantically
And that human flaws although they have their price
May once have been essential in averting our demise

Chorus
And it's only natural you know
The state of regression is the fate of us all
And it's only natural you see
A state perpetuated by our common history
Our common history
It's there for all to see

Verse 3
Yeah it's only natural you see
There's nothing to be cursed it's all hereditary
Yeah it's only natural you know
The unguided projectile of our history's common flow

Chorus
And it's only natural you know
The state of regression is the fate of us all
And it's only natural you see
A state perpetuated by our common history
Our common history
It's there for all to see

Chorus 2
And it's only natural you know
The unparalleled paradox that robs us of our hope
And it's only natural you see
Our demise the outcome of survival of our ancestry
Our common history
It's there for all to see

email me on owen_b123@hotmail.com

http://www.beanspunk.nl/
Tap to rate this tab
 
# A B C D E F G H I J K L M N O P Q R S T U V W X Y Z