Song name
# A B C D E F G H I J K L M N O P Q R S T U V W X Y Z

Bear Mccreary - All Along The Watchtower tab

Standard tuning
V - vibrate 
/ - slide

There we go, finally the Bear Mccreary version of All Along the Watchtower. 
This is my first tab, so bare with me here, I got it all done by ear, I am 
pretty sure that everything is correct, or at least it sounds correct, this 
took a bit of time. I modified the intro from the guitar pro version ( the
who pro tab was just the intro). This tab should be pretty easy to play.

Remember to mess with your tune, and put it up high, or else you wont get the
proper sound like in the song. On the into you can use an acoustic if you'd like. 



You can figure out how many times to play what by listening to the song.


Intro 
e|-------------------------------------------------------------------------|
B|-------------------------------------------------------------------------|  
G|---6-6--6-----9-9-p-7-p-6----4----6-6-6---9-9-p-7-p-6--------------------|
D|-------------------------------------------------------------------------|
A|-------------------------------------------------------------------------|
E|-------------------------------------------------------------------------|


Verse
e|-------------------------------------------------------------------------|
B|-------------------------------------------------------------------------|  
G|-------------------------------------------------------------------------|
D|----------------7-7-7----------------7-7-7------------------7-7-7--------|
A|----------4-5-7----------------4-5-7-------5v---------4-5-7--------------|
E|-9-9-9-9---------------9-9-9-9-----------------9-9-9-9-------------------|


e|-------------------------------------------------------------------------|
B|-------------------------------------------------------------------------|  
G|-------------------------------------------------------------------------|
D|------------------7-6-7-6------------------------------------------------|
A|------------4-5-7----7----5v---------------------------------------------|
E|-9-9-9--9----------------------------------------------------------------|


Ending - You can play this part on two guitar, or which ever version you find suits best.

Guitar 1
e|-------------------------------------------------------------------------|
B|-------------------------------------------------------------------------|  
G|-------------------------------------------------------------------------|
D|-------------------------------------------------------------------------|
A|----------5--5--4--4---------5--5--4--4-/-7v-----------5--5--4--4--------|
E|--9-9-9-9------------9-9-9-9-------------------9-9-9-9-------------------|

                                                (play this part twice)
Guitar 2
e|-------------------------------------------------------------------------|
B|-------------------------------------------------------------------------|  
G|--6--7-/-6------6--7-/-6-/-9----6--7-/-6----6--7-/-6---------------------|
D|--6--7-/-6------6--7-/-6-/-9----6--7-/-6----6--7-/-6---------------------|
A|--4--5-/-4------4--5-/-4-/-7----4--5-/-4----4--5-/-4---------------------|
E|-------------------------------------------------------------------------|
   x4  x2 x2     x4 x2  x2  x1   x4 x2  x2   x4  x2 x2 


Criticism is welcome, gotta get better somehow! 

                
                B A T T L E S T A R  G A L A C T I C A
Tap to rate this tab
# A B C D E F G H I J K L M N O P Q R S T U V W X Y Z