Song name
# A B C D E F G H I J K L M N O P Q R S T U V W X Y Z

Bear Vs Shark - Catamaran tab

-------------------------------------------------------------------------------
			     Catamaran - Bear Vs Shark
-------------------------------------------------------------------------------

Tuning: Standard

my first shot at a tab! A good chunk of the song, still working on the ending though. 
not rhythm but its pretty strightforward. Any suggestions or comments welcome.


Intro/prechorus
e|---------------------------------------------------------------------------|
B|---------------------------------------------------------------------------|
G|---------------------------------------------------------------------------|
D|--11-11-11--x-x-x-x-x------------------------------------------------------|
A|--11-11-11--x-x-x-x-x------------------------------------------------------|
E|--9--9--9---x-x-x-x-x------------------------------------------------------|

verse
e|---------------------------------------------------------------------------|
B|---------------------------------------------------------------------------|
G|-----------------8---------------------------------------------------------|
D|--11---11--------8---------------------------------------------------------|
A|--11---11---4----6---------------------------------------------------------|
E|--9----0----5--------------------------------------------------------------|

chorus
e|--4------------------------------------------------------------------------|
B|--5------------------------------------------------------------------------|
G|--6-----1--------8---------------------------------------------------------|
D|--6-----2--------8---------------------------------------------------------|
A|--4-----2---4----6---------------------------------------------------------|
E|--------0---5--------------------------------------------------------------|

2nd verse is just some messing around with the same chords




| /  slide up
| \  slide down
| h  hammer-on
| p  pull-off
| ~  vibrato
| +  harmonic
| x  Mute note
===============================================================================
Tap to rate this tab
# A B C D E F G H I J K L M N O P Q R S T U V W X Y Z