Song name
# A B C D E F G H I J K L M N O P Q R S T U V W X Y Z

Bear Vs Shark - Seven Stop Hold Restart tab

-------------------------------------------------------------------------------
			     Seven Stop Hold Restart -  Bear vs Shark
-------------------------------------------------------------------------------
Tabbed by: boxcarmothra
Email: nimrod.miller@hotmail.com

Tuning: standard

	it's hard to get a lot of the smaller details on a bear vs shark song because there's a 
lot going on, and i don't really know what tuning they're in, but it works in standard 
either way. this is at least a skeletal version. enjoy!

0.0
e|-------------------7-------------------------------7-----------------------|
B|----------0--------------------3-------------0-----------------------------|
G|-------------0---------02--2h4------------------0---------4p2--------------|
D|--2-h3h4-----------------------------2-h3h4------------------------2-------|x2
A|---------------------------------------------------------------------------|
E|---------------------------------------------------------------------------|

0.9				you can do this as a hammer-on but I think it's easier to slide
e|-------7-------7------7------7-------------5-------5--------5--------5-----|
B|---------------------------------------------------------------------------|
G|--------------------------------------2/4-----2/4-----2/4------2/4---------|
D|--7h9-----7h9----7h9---7h9-------------------------------------------------|
A|---------------------------------------------------------------------------|
E|---------------------------------------------------------------------------|

e|-------7-------7------7------7---------------------------------------------|
B|---------------------------------------------------------------------------|
G|-----------------------------------------9 full bend-----------------------|x2
D|--7h9-----7h9----7h9---7h9---------------9---------------------------------|
A|---------------------------------------------------------------------------|
E|---------------------------------------------------------------------------|

0.27
e|---------------------------------------------------------------------------|
B|---------------------------------------------------------------------------|
G|---------------------------------------------------------------------------|
D|-----------555-000-----------------555-000---22----------------------------|x4
A|--222--------------00-22--222--------------00------------------------------|
E|------333---------------------333------------------------------------------|

0.36
e|----------10------------------------------10-------------------------------|
B|--10h12---------10---12-----------10h12--------10---12---------------------|
G|---------------------------------------------------------12----------------|
D|--------------------------12-----------------------------------------------|
A|---------------------------------------------------------------------------|
E|---------------------------------------------------------------------------|

0.48			this is a rough rough estimate
e|---------------------------------------------------------------------------|
B|-----------------------------------------------------10--------------------|
G|---9-b-----9-b--------------4-------4----------------9---strum-------------|
D|---9-b-----9-b--------------5-------5----------------9---------------------|
A|---7-------7----------------5-------5--------------------------------------|
E|---7-------7----------------3-------3--------------------------------------|

1.16
e|---12---\10--/15~----------------------------------------------------------|
B|-----------------12~------/15-----\8----/12~-------------------------------|
G|---------------------------------------------------------------------------|
D|---------------------------------------------------------------------------|
A|---------------------------------------------------------------------------|
E|---------------------------------------------------------------------------|

1.26
e|---------------------------------------------------------------------------|
B|---------------------------------------------------------------------------|
G|-------12--/14-----------12--/14-------------------------------------------|
D|--9-----------------9------------------------------------------------------|
A|-------10--/12-----------10--/12-------------------------------------------|
E|--7-----------------7------------------------------------------------------|

2.04
e|---------------------------------------------------------------------------|
B|---10----------10----------10------------------10--------------------------|
G|---------9--------9--------------9------10/-11----11-----------------------|
D|-----------9--------9--------------9---------------------------------------|
A|---------------------------------------------------------------------------|
E|---------------------------------------------------------------------------|
************************************

| /   slide up
| \   slide down
| h   hammer-on
| p   pull-off
| ~   vibrato
| +   harmonic
| x   Mute note
| b   Bend
| pb  Pre-bend
| br  Bend release
| pbr Pre-bend release
| brb Bend release bend

************************************
Tap to rate this tab
# A B C D E F G H I J K L M N O P Q R S T U V W X Y Z