Song name
# A B C D E F G H I J K L M N O P Q R S T U V W X Y Z

Bear Vs Shark - Second tab

Bear vs. Shark - Second
Tabbed by: astoit1323

This is my version of Second, and after listening to it multiple times, I think I got it down.
Comments/questions can be emailed to me at snpr1323@gmail.com.

Guitar 1 only:
 Emaj C#m7/E Bsus4 Esus4
|-0--|-0----|-0---|-0---|
|-0--|-0----|-0---|-0---|
|-1--|-6----|-4---|-2---|
|-2--|-6----|-4---|-2---|
|-2--|-4----|-2---|-0---|
|-0--|-0----|-x---|-0---|


Emaj       C#m7/E     Bsus4    Esus4
And I'll take what is given to me
Emaj       C#m7/E     Bsus4    Esus4
And I'll realize I'm not going home
              Emaj  C#m7/E           Bsus4     Esus4
And after a while, when all of your currency's gone
             Emaj  C#m7/E           Bsus4           Esus4
And after a while, when all your mistakes have been made and you've tasted
              Emaj
the carbon dioxide.

After the lyrics are finished and the rest of the band comes in, a new progression is 
started that continues through the rest of the song.

Guitar 1 plays:
 Emaj Bsus4 Esus4
|-0--|-0---|-0--|
|-0--|-0---|-0--|
|-1--|-4---|-2--|
|-2--|-4---|-2--|
|-2--|-2---|-0--|
|-0--|-x---|-0--|

OR (Either variation sounds fine. I personally like to switch between the two when playing.)

 E5  Bsus4  Esus4
|-0-|-0---|-0---|
|-0-|-0---|-0---|
|-9-|-4---|-2---|
|-9-|-4---|-2---|
|-7-|-2---|-0---|
|-0-|-x---|-0---|

And Guitar 2 plays:
  B    F#   E
|-x--|-x--|-x--|
|-12-|-x--|-x--|
|-x--|-11-|-9--|
|-9--|-x--|-x--|
|-x--|-9--|-7--|
|-x--|-x--|-x--|

There is also a synth in the background that plays something like this, which repeats 
for the rest of the song.:

e|-------------------------------------------------|
B|-------------------------------------------4-----|
G|-4-4---4-4---4-4---6-8---4-----4-----6-4-----4---|
D|---------------------------6-----6---------------|
A|-------------------------------------------------|
E|-------------------------------------------------|


Good luck! Hope this helps!
Tap to rate this tab
# A B C D E F G H I J K L M N O P Q R S T U V W X Y Z