Guitaretab - guitar tabs
Song name
# A B C D E F G H I J K L M N O P Q R S T U V W X Y Z

Bear Vs Shark - Rich People Say Hey Hey tab

---------------------------------------------------------------------
Rich People Say Hey Hey  Bear Vs. Shark
---------------------------------------------------------------------
Tabbed by: Kheelan
Email: kstone@chcs.tas.edu.au
Tuning: Standard
First tab so don't expect it to be perfect

CHORUS

Both Guitars x4
|--------------------------------------|
|--------------------------------------|
|--9999999999999999-44444444-66666666--|
|--9999999999999999-44444444-66666666--|
|--7777777777777777-22222222-44444444--|
|--------------------------------------|

VERSE 1

Guitar 1 x1
|------------------------------------------|--------|
|------------------------------------------|--------|
|------------------------------------------|--------|
|------6-6---6---6-6--------6-6--2-2h4-2---|--4p2---|
|--4-4------------------4-4----------------|--------|
|------------------------------------------|--------|
[ Tab from: http://www.guitaretab.com/b/bear-vs-shark/69066.html ]
Guitar 2 x6
|------------------------------------------|
|------------------------------------------|
|--------6-------6-------------------------|
|------6---6---6----6-------6-6--2-2h4-----|
|--4-4-------4----------4-4----------------|
|------------------------------------------|

VERSE 2

Guitar 1 x1
|------------------------------------------|--------|
|------------------------------------------|--------|
|------------------------------------------|--------|
|------6-6---6---6-6--------6-6--2-2h4-2---|--4p2---|
|--4-4------------------4-4----------------|--------|
|------------------------------------------|--------|

Guitar 2 x2
|------------------------------------------|
|------------------------------------------|
|--------6-------6-------------------------|
|------6---6---6----6-------6-6--2-2h4-----|
|--4-4-------4----------4-4----------------|
|------------------------------------------|

Then Just Play Fragments of the Above

BRIDGE

Both Guitars x4
|-----------------|
|-----------------|
|-----------------|
|-----------------|
|--14----9---10---|
|--12----7----9---|

VERSE 3

Both Guitars About x30 and Repeat x12
|-----|
|-----|
|--4--|
|--4--|
|--2--|
|-----|


| /  slide up
| \  slide down
| h  hammer-on
| p  pull-off
| ~  vibrato
| +  harmonic
| x  Mute note
=====================================================================
Related for Rich People Say Hey Hey tab