Guitaretab - guitar tabs
Song name
# A B C D E F G H I J K L M N O P Q R S T U V W X Y Z

Bear Vs Shark - Ma Jolie tab

Ma Jolie by Bear Vs Shark
Tuning: Drop D

Intro: (Distortion)

e|-----------------------|
B|-----------------------|
G|-----------------------|   x4
D|2-4-6-2-4-6-2-4-6-7-6-4|
A|2-4-6-2-4-6-2-4-6-7-6-4|
D|2-4-6-2-4-6-2-4-6-7-6-4|


During the Verse Strum:

 A2  A
|-----|
|5---2|
|2---2|  All through the chorus, until 0:55
|2---2|
|0---0|
|-----|

During the verse behind the main riff:

|-----------|
|-----------|
|-----------|
|2h4p2p0----| 0:44 - This might be played by the same guitar as the verse.
|--------2p0| "I had a headache when you left."
|-----------|


|-------|
|--X/--6|
|--X/7--| 0:45 (Let Ring) PLAY THEM SEPARATELY.
|-------| "Give up something..."
|-------|
|-------|


Prechorus:

e|-----------------------|
B|-----------------------|
G|-----------------------|   x4
D|2-4-6-2-4-6-2-4-6-7-6-4|
A|2-4-6-2-4-6-2-4-6-7-6-4|
D|2-4-6-2-4-6-2-4-6-7-6-4|


Chorus: (Listen Closely to get a better understanding. The 2s are triplets)
[ Tab from: http://www.guitaretab.com/b/bear-vs-shark/71221.html ]
|-------------------------------------------------------------------------|
|-------------------------------------------------------------------------|
|-------------------------------------------------------------------------|
|222-7-6-222--6-4--222-7-6--222-6-4--222-7-6---222---7-6--222-6-4--222-7-6|
|222-7-6-222--6-4--222-7-6--222-6-4--222-7-6---222---7-6--222-6-4--222-7-6|
|222-7-6-222--6-4--222-7-6--222-6-4--222-7-6---222---7-6--222-6-4--222-7-6|

Then:

|-----12p0|
|---------|
|---------|
|222------| After this, play the verse.
|222------|
|222------|


The verse has a few variations of the background in the first verse. They might be 
the same, actually. Listen to it and you'll figure it out pretty easily.

|-------|
|--X/--6|
|--X/7--| 1:58 (Let Ring) PLAY THEM SEPARATELY.
|-------| "Move these walls inside myself..."
|-------|
|-------|


Play the chorus, but instead of playing the end with the powerchord and triplets, play 
A chord.

Ending: Strum
 A   C#m   D    A
|x----4----5----x-|
|2----5----5----2-|
|2----6----7----2-|
|2----6----7----2-| Repeat until end.
|0----4----5----0-|
|-----------------|


Enjoi. This is my first tab ever. Instead of bitching at me in the comments section, 
provide some constructive critcism at envyhagane@gmail.com or IM me. My AIM name is Klay Scott.

Thanks. BVS kicks ass.
Related for Ma Jolie tab
Advertisement will be closed in 10 seconds