Guitaretab - guitar tabs
Song name
# A B C D E F G H I J K L M N O P Q R S T U V W X Y Z

Bear Vs Shark - Employee Is Not Afraid tab

----------------------------------------------------------------------------
              "The Employee Is Not Afraid" by Bear Vs. Shark
----------------------------------------------------------------------------

                         from the album
"Right Now You're In The Best Of Hands, But If Something Isn't Quite Right, Your Doctor 
Know In A Hurry"

Tabbed by Trent (ICanPlayWell)
icanplaymyguitar@yahoo.com

Standard Tuning
KEY:
/ slide up
 slide down
p pull off
~ let ring
U upstroke
pm palm mute

This is long because I have tabbed out all chords from every part, but a lot of sections 
just repeated...


Bass Intro (It's still fun to throw in)
e|----------------------------|
b|----------------------------|
g|----------------------------|
d|----------------------------|
a|-10---8---7---5-7-5---------|
e|----------------------------|


Verse [0:04-0:35]-There are two guitars but the acoustic panned left just plays the C 
(I think) and the one panned right plays this:
e|----------------------------------------------------------------|
b|-5---5--5-5-5-5-------------------------------------------------|
g|-5---5--5-5-5-5---4--4-4--4-4--4-4-4-4---5--5-5--5-5--5-5-5-5---|
d|-5---5--5-5-5-5--------------------------5--5-5--5-5--5-5-5-5---|
a|-3---3--3-3-3-3---3--3-3--3-3--3-3-3-3--------------------------|
e|------------------1--1-1--1-1--1-1-1-1---3--3-3--3-3--3-3-3-3---|

e|---------------------------------|
b|---------------------------------|
g|-10--10-10--10-10--10-10-10-10---|
d|---------------------------------|
a|--8---8--8---8--8---8--8--8--8---|
e|--8---8--8---8--8---8--8--8--8---|

Lead-Played 2 times over verse [0:20-0:35]
e|-0-----1-----3-----3/5-31p0------0-------0-------0-----------------|
b|---1-----1-----1--------------1--1-1--1--1-1---3-----3--3/5--3-----|
g|-----0-----0-----0---------------------------------------------4---|
d|-------------------------------------------------------------------|
a|-------------------------------------------------------------------|
e|-------------------------------------------------------------------|

Played after verse [0:35-0:42] (Verse chords are played under this)
e|--------------------------------------------------------------------|
b|-5--5--5--5--5-5-5-5------------------------------------------------|
g|-5--5--5--5--5-5-5-5--4--4--4--4--4-4-4-4--5--5--5--5--5-5-5-5------|
d|-5--5--5--5--5-5-5-5-----------------------5--5--5--5--5-5-5-5------|
a|-3--3--3--3--3-3-3-3--3--3--3--3--3-3-3-3---------------------------|
e|----------------------1--1--1--1--1-1-1-1--3--3--3--3--3-3-3-3------|

e|--------------------------|
b|--------------------------|
g|-4--4--4--4--4-4-4-4------|
d|--------------------------|
a|-3--3--3--3--3-3-3-3------|
e|-1--1--1--1--1-1-1-1------|

"My sockets are swimming...." [0:43-0:53] (Verse chords are played under this as well)
e|----------------------------------------------------------------|
b|-5---5--5-5-5-5-------------------------------------------------|
g|-5---5--5-5-5-5---4--4-4--4-4--4-4-4-4---5--5-5--5-5--5-5-5-5---|
d|-5---5--5-5-5-5--------------------------5--5-5--5-5--5-5-5-5---|
a|-3---3--3-3-3-3---3--3-3--3-3--3-3-3-3--------------------------|
e|------------------1--1-1--1-1--1-1-1-1---3--3-3--3-3--3-3-3-3---|

e|-----------------------------|
b|-------------------------5~--|
g|-4--4--4--4--4-4-4-4-----5~--|
d|-------------------------5~--|
a|-3--3--3--3--3-3-3-3-----3~--|
e|-1--1--1--1--1-1-1-1---------|

Chorus [0:54-1:26]
e|-----------------------------------------------------------------|
b|-3U-------------------------------------3U-----------------------|
g|-2U-------------------------------------2U-----------------------|
d|-----------------------------------------------------------------|
a|-2U---2-4-2-----5-7-5-7/9---7---5---4---2U---2-4-2-----------/9--|
e|------------3--------------------------------------3---3/5-3-----|

e|-----------------------------------------------------------------|
b|-3U-------------------------------------3U-----------------------|
g|-2U-------------------------------------2U-----------------------|
d|-----------------------------------------------------------------|
a|-2U---2-4-2-------7-5-7/9---7---5---4---2U---2-4-2-----------/9--|
e|------------3--------------------------------------3---3-5-3-----|

Post-Chorus [1:27-1:30]
e|-------------------------------------------|
b|-5--5--5--5--5-5-5-5-----------------------|
g|-5--5--5--5--5-5-5-5--4--4--4--4--4-4-4-4--|
d|-5--5--5--5--5-5-5-5-----------------------|
a|-3--3--3--3--3-3-3-3--3--3--3--3--3-3-3-3--|
e|----------------------1--1--1--1--1-1-1-1--|

Second Verse [1:30-1:44]
e|----------------------------------------------------------------|
b|-5---5--5-5-5-5-------------------------------------------------|
g|-5---5--5-5-5-5---4--4-4--4-4--4-4-4-4---5--5-5--5-5--5-5-5-5---|
d|-5---5--5-5-5-5--------------------------5--5-5--5-5--5-5-5-5---|
a|-3---3--3-3-3-3---3--3-3--3-3--3-3-3-3--------------------------|
e|------------------1--1-1--1-1--1-1-1-1---3--3-3--3-3--3-3-3-3---|

e|----------------------------|
b|----------------------------|
g|-4--4-4--4-4--4-4-4-4-------|
d|----------------------------|
a|-3--3-3--3-3--3-3-3-3-------|
e|-1--1-1--1-1--1-1-1-1-------|

[1:45-1:52]
e|--------------------------------------------------------------------|
b|-5--5--5--5--5-5-5-5------------------------------------------------|
g|-5--5--5--5--5-5-5-5--4--4--4--4--4-4-4-4--5--5--5--5--5-5-5-5------|
d|-5--5--5--5--5-5-5-5-----------------------5--5--5--5--5-5-5-5------|
a|-3--3--3--3--3-3-3-3--3--3--3--3--3-3-3-3---------------------------|
e|----------------------1--1--1--1--1-1-1-1--3--3--3--3--3-3-3-3------|

e|--------------------------|
b|--------------------------|
g|-4--4--4--4--4-4-4-4------|
d|--------------------------|
a|-3--3--3--3--3-3-3-3------|
e|-1--1--1--1--1-1-1-1------|

"My sockets are swimming..." [1:53-2:03]
e|----------------------------------------------------------------|
b|-5---5--5-5-5-5-------------------------------------------------|
g|-5---5--5-5-5-5---4--4-4--4-4--4-4-4-4---5--5-5--5-5--5-5-5-5---|
d|-5---5--5-5-5-5--------------------------5--5-5--5-5--5-5-5-5---|
a|-3---3--3-3-3-3---3--3-3--3-3--3-3-3-3--------------------------|
e|------------------1--1-1--1-1--1-1-1-1---3--3-3--3-3--3-3-3-3---|

e|-----------------------------|
b|-------------------------5~--|
g|-4--4--4--4--4-4-4-4-----5~--|
d|-------------------------5~--|
a|-3--3--3--3--3-3-3-3-----3~--|
e|-1--1--1--1--1-1-1-1---------|

Second Chorus [2:04-2:50]
e|-------------------------------------------------|
b|-3-----7-----8-----12-----3-----7-----8-----12---|
g|-2-----7-----9-----12-----2-----7-----9-----12---|
d|-------------------------------------------------|
a|-2-----5-----7-----10-----2-----5-----7-----10---|
e|-------------------------------------------------|

     pm.................................................
e|-----------------------------------------------------------|
b|-3---------------------------------------------------------|
g|-2---------------------------------------------------------|
d|-----------------------------------------------------------|
a|-2-2-2-2-2-2-5-5-5-5-5-5-7-7-7-7-7-7-10-10-10-10-10-10-----|
e|-----------------------------------------------------------|
[ Tab from: http://www.guitaretab.com/b/bear-vs-shark/72037.html ]
     pm.................................................
e|-----------------------------------------------------------|
b|-3U--------------------------------------------------------|
g|-2U--------------------------------------------------------|
d|-----------------------------------------------------------|
a|-2U-2-2-2-2-2-5-5-5-5-5-5-7-7-7-7-7-7-10-10-10-10-10-10----|
e|-----------------------------------------------------------|


e|------------------------------------------------7--7-7-7-7--7--7-7-7-7--|
b|-7--7-7--7--7-7--7----7--7-7-7-7--7--7-7-7-7----8--8-8-8-8--8--8-8-8-8--|
g|-7--7-7--7--7-7--7----7--7-7-7-7--7--7-7-7-7----9--9-9-9-9--9--9-9-9-9--|
d|------------------------------------------------------------------------|
a|----------------------5--5-5-5-5--5--5-5-5-5----7--7-7-7-7--7--7-7-7-7--|
e|-7--7-7--7--7-7--7------------------------------------------------------|

e|-------------------------------|
b|-12--12-12-12--12--12-12-12----|
g|-12--12-12-12--12--12-12-12----|
d|-------------------------------|
a|-10--10-10-10--10--10-10-10----|
e|-------------------------------|

e|------------------------------------------------7--7-7-7-7--7--7-7-7-7--|
b|-7--7-7--7--7-7--7----7--7-7-7-7--7--7-7-7-7----8--8-8-8-8--8--8-8-8-8--|
g|-7--7-7--7--7-7--7----7--7-7-7-7--7--7-7-7-7----9--9-9-9-9--9--9-9-9-9--|
d|------------------------------------------------------------------------|
a|----------------------5--5-5-5-5--5--5-5-5-5----7--7-7-7-7--7--7-7-7-7--|
e|-7--7-7--7--7-7--7------------------------------------------------------|

e|-------------------------------|
b|-12--12-12-12--12--12-12-12----|
g|-12--12-12-12--12--12-12-12----|
d|-------------------------------|
a|-10--10-10-10--10--10-10-10----|
e|-------------------------------|

Post-Chorus [2:51-2:54]
e|-------------------------------------------|
b|-5--5--5--5--5-5-5-5-----------------------|
g|-5--5--5--5--5-5-5-5--4--4--4--4--4-4-4-4--|
d|-5--5--5--5--5-5-5-5-----------------------|
a|-3--3--3--3--3-3-3-3--3--3--3--3--3-3-3-3--|
e|----------------------1--1--1--1--1-1-1-1--|

[2:55-3:08]
e|----------------------------------------------------------------|
b|-5---5--5-5-5-5-------------------------------------------------|
g|-5---5--5-5-5-5---4--4-4--4-4--4-4-4-4---5--5-5--5-5--5-5-5-5---|
d|-5---5--5-5-5-5--------------------------5--5-5--5-5--5-5-5-5---|
a|-3---3--3-3-3-3---3--3-3--3-3--3-3-3-3--------------------------|
e|------------------1--1-1--1-1--1-1-1-1---3--3-3--3-3--3-3-3-3---|

e|---------------------------------|
b|---------------------------------|
g|-10--10-10--10-10--10-10-10-10---|
d|---------------------------------|
a|--8---8--8---8--8---8--8--8--8---|
e|--8---8--8---8--8---8--8--8--8---|

e|----------------------------------------------------------------|
b|-5---5--5-5-5-5-------------------------------------------------|
g|-5---5--5-5-5-5---4--4-4--4-4--4-4-4-4---5--5-5--5-5--5-5-5-5---|
d|-5---5--5-5-5-5--------------------------5--5-5--5-5--5-5-5-5---|
a|-3---3--3-3-3-3---3--3-3--3-3--3-3-3-3--------------------------|
e|------------------1--1-1--1-1--1-1-1-1---3--3-3--3-3--3-3-3-3---|

e|---------------------------------|
b|---------------------------------|
g|-10--10-10--10-10--10-10-10-10---|
d|---------------------------------|
a|--8---8--8---8--8---8--8--8--8---|
e|--8---8--8---8--8---8--8--8--8---|

"Yo-e-yoooooooo" [3:09-3:24--------------------------------------------|
e|---------------------------------------------------------------------|
b|-5--5--5--5--5-5-5-5-------------------------------------------------|
g|-5--5--5--5--5-5-5-5--4--4--4--4--4-4-4-4--5--5--5--5--5-5-5-5-------|
d|-5--5--5--5--5-5-5-5-----------------------5--5--5--5--5-5-5-5-------|
a|-3--3--3--3--3-3-3-3--3--3--3--3--3-3-3-3----------------------------|
e|----------------------1--1--1--1--1-1-1-1--3--3--3--3--3-3-3-3-------|

e|--------------------------|
b|--------------------------|
g|-4--4--4--4--4-4-4-4------|
d|--------------------------|
a|-3--3--3--3--3-3-3-3------|
e|-1--1--1--1--1-1-1-1------|

[3:25-3:32]
e|-----------------------------------------------------------------------------------|
b|-5--5-5-5-5--5--5-5-5-5------------------------------------------------------------|
g|-5--5-5-5-5--5--5-5-5-5--4--4-4-4-4--4--4-4-4-4--5--5-5-5-5--5--5-5-5-5------------|
d|-5--5-5-5-5--5--5-5-5-5--------------------------5--5-5-5-5--5--5-5-5-5------------|
a|-3--3-3-3-3--3--3-3-3-3--3--3-3-3-3--3--3-3-3-3------------------------------------|
e|-------------------------1--1-1-1-1--1--1-1-1-1--3--3-3-3-3--3--3-3-3-3------------|

e|------------------------------------|
b|------------------------------------|
g|-10--10-10-10-10--10--10-10-10-10---|
d|------------------------------------|
a|--8---8--8--8--8---8---8--8--8--8---|
e|--8---8--8--8--8---8---8--8--8--8---|

[3:33-3:47]
e|--------------------------------------------------------------------|
b|-5--5--5--5--5-5-5-5------------------------------------------------|
g|-5--5--5--5--5-5-5-5--4--4--4--4--4-4-4-4--5--5--5--5--5-5-5-5------|
d|-5--5--5--5--5-5-5-5-----------------------5--5--5--5--5-5-5-5------|
a|-3--3--3--3--3-3-3-3--3--3--3--3--3-3-3-3---------------------------|
e|----------------------1--1--1--1--1-1-1-1--3--3--3--3--3-3-3-3------|

e|--------------------------|
b|--------------------------|
g|-4--4--4--4--4-4-4-4------|
d|--------------------------|
a|-3--3--3--3--3-3-3-3------|
e|-1--1--1--1--1-1-1-1------|

e|--------------------------------------------------------------------|
b|-5--5--5--5--5-5-5-5------------------------------------------------|
g|-5--5--5--5--5-5-5-5--4--4--4--4--4-4-4-4--5--5--5--5--5-5-5-5------|
d|-5--5--5--5--5-5-5-5-----------------------5--5--5--5--5-5-5-5------|
a|-3--3--3--3--3-3-3-3--3--3--3--3--3-3-3-3---------------------------|
e|----------------------1--1--1--1--1-1-1-1--3--3--3--3--3-3-3-3------|

e|--------------------------|
b|--------------------------|
g|-4--4--4--4--4-4-4-4------|
d|--------------------------|
a|-3--3--3--3--3-3-3-3------|
e|-1--1--1--1--1-1-1-1------|

Outro [3:48-4:10]
e|----------------------------------------------------------------|
b|-5--5-5--5--5--5-5-5--------------------------------------------|
g|-5--5-5--5--5--5-5-5--4--4-4-4-4--4--4-4--5--5-5-5--5--5-5-5----|
d|-5--5-5--5--5--5-5-5----------------------5--5-5-5--5--5-5-5----|
a|-3--3-3--3--3--3-3-3--3--3-3-3-3--3--3-3------------------------|
e|----------------------1--1-1-1-1--1--1-1--3--3-3-3--3--3-3-3----|

e|----------------------------------|
b|----------------------------------|
g|-10--10-10--10--10--10-10-10------|
d|--8---8--8---8---8---8--8--8------|
a|----------------------------------|
e|--8---8--8---8---8---8--8--8------|

e|----------------------------------------------------------------|
b|-5--5-5--5--5--5-5-5--------------------------------------------|
g|-5--5-5--5--5--5-5-5--4--4-4-4-4--4--4-4--5--5-5-5--5--5-5-5----|
d|-5--5-5--5--5--5-5-5----------------------5--5-5-5--5--5-5-5----|
a|-3--3-3--3--3--3-3-3--3--3-3-3-3--3--3-3------------------------|
e|----------------------1--1-1-1-1--1--1-1--3--3-3-3--3--3-3-3----|

e|--------------------------------------|
b|----------------------------------5~--|
g|-10--10-10--10--10--10-10-10------5~--|
d|--8---8--8---8---8---8--8--8------5~--|
a|----------------------------------3~--|
e|--8---8--8---8---8---8--8--8----------|


BVS=GOOD...thanks for checking this out
And that's it. Enjoy this tab. Questions and/or comments and/or concerns???
Send me an email (address is at the top)
+++PLEASE request my permission if you would like to post this on+++
+++another site or whatever, since it is the only one. Thank you+++
Related for Employee Is Not Afraid tab
Advertisement will be closed in 10 seconds