Song name
# A B C D E F G H I J K L M N O P Q R S T U V W X Y Z

Bear Vs Shark - Mps tab

Help us improve GuitareTab! Take a short survey!
----------------------------------------------------------------------------
                            "MPS" by Bear Vs Shark
----------------------------------------------------------------------------
                                from the album
     "Right Now You're In The Best Of Hands, And If Something Isn't Quite
                    Right, Your Doctor Will Know In A Hurry"


Tabbed by: Trent (ICanPlayWell)
icanplaymyguitar@yahoo.com

Standard Tuning

Key:
X
X  Strum Muted Strings
X


Very Simple song...has verse and chorus.


Verse [0:00-1:14] & [1:44-2:27]
e|-7--7--7--7--------------------------------|
b|-5--5--5--5--XX--5--5--55--5--5--XX--------|
g|-------------XX------------------XX--------|  x6
d|-------------XX--4--4--44--2--2--XX--------|
a|-4--4--4--4--XX--4--4--44--0--0--XX--------|
e|-------------------------------------------|

Variation Played Occasionally [0:46-0:53]
e|-7--7--7--7-----------------------------------|
b|-5--5--5--5--X---5--5-5-5-5--5--5-5-5-5-------|
g|-------------X--------------------------------|
d|-------------X---4--4-4-4-2--2--2-2-2-2-------|
a|-4--4--4--4--X---4--4-4-4-0--0--0-0-0-0-------|
e|----------------------------------------------|

Chorus [1:15-1:43] & [2:27-2:55]
e|---------------------------------------------------------------------------|
b|-8-8-8-8X--8-XX--8-8-8-8-8-8-8-8-8-8---8---8-XX--8-XX--8-8-8-8-8-8-8-8-8-8-|
g|--------X----XX------------------------------XX----XX----------------------|
d|-4-4-4-4X----XX--7-5-5-5-5-5-5-5-5-5---4---4-XX----XX--7-5-5-5-5-5-5-5-5-5-|
a|-5-5-5-5X--3-XX------------------------5---5-XX--3-XX----------------------|
e|-----------------0-0-0-0-0-0-0-0-0-0-------------------0-0-0-0-0-0-0-0-0-0-|

e|-------------------------------------------------------------|
b|-8---8-XX--8-XX--8-8-8-8-8-8-8-8-8-8---8---8-XX--8-XX--8-8---|
g|-------XX----XX------------------------------XX----XX--------|
d|-4---4-XX----XX--7-5-5-5-5-5-5-5-5-5---4---4-XX----XX--7-5---|
a|-5---5-XX--3-XX------------------------5---5-XX--3-XX--------|
e|-----------------0-0-0-0-0-0-0-0-0-0-------------------0-0---|


BVS=GOOD!  Thanks for looking, and please rate/comment.
Strumming varies, but just listen for correct rythm.  Easy & Entertaining.
+++Please request my permission before copying and/or posting+++
+++this elsewhere, since it is the first. Thanks, email is at top+++
Related for Mps tab