Guitaretab - guitar tabs
Song name
# A B C D E F G H I J K L M N O P Q R S T U V W X Y Z

Bear Vs Shark - Broken Dog Leg tab

-------------------------------------------------------------------------------
		Bear Vs. Shark-Broken Dog Leg
-------------------------------------------------------------------------------
Tabbed by: Matt


Tuning: Iím assuming normal, it didnít seem like much happened on the E string to notice anyhow.

Intro: DrumsÖI usually fuck around with harmonics and stuff at this point.

Guitar 1 X7

e|--------------------------------------------------------------------|
B|--8ó-8-8-----8--8-8-------------------------------------------------|
G|88--8-8-8--88--8-8-8------------------------------------------------|
D|--------------------------------------------------------------------|
A|--------------------------------------------------------------------|
E|--------------------------------------------------------------------|

Guitar 1 Repeat as necessary.  The part starting at 1 minute in is a variation of this 
you pick each not and add in other chords, mainly dissonant around the same area of the neck.

e|--------------------------------------------------------------------|
B|99ó-99--1212-1212-121212--99-99-99-99-------------------------------|
G|88ó-88ó-8-8--8-8--8-8-8---88-88-88-88-------------------------------|
D|--------------------------------------------------------------------|
A|--------------------------------------------------------------------|
E|--------------------------------------------------------------------|

Guitar 2 (guitar 1 continues the funky lead from the earlier staff).  This part has 
strumming with mutes pretty much in between each strum, so Iíll give you the octaves and you 
figure it out.

e|--------------------------------------------------------------------|
B|--------------------------------------------------------------------|
G|--9--9-----11--11-11------------------------------------------------|
D|--x--x-----x---x--x-------------------------------------------------|
A|--7--7-----9---9--9-------------------------------------------------|
E|--------------------------------------------------------------------|
[ Tab from: http://www.guitaretab.com/b/bear-vs-shark/82368.html ]
Guitar 1 lead over guitars octaves
    H p h p(and bend)  h p h p(and bend)
e|-------------12-----------------12----------------------------------|
B|-10121012-----------10121012----------------------------------------|
G|-----------9------------------9-------------------------------------|
D|--------------------------------------------------------------------|
A|--------------------------------------------------------------------|
E|--------------------------------------------------------------------|


Guitar 2 (repeat four times)

e|--------------------------------------------------------------------|
B|--------------------------------------------------------------------|
G|7-7-7-7---9-9-9-9---2-2-2-2-2-2-2-2---------------------------------|
D|7-7-7-7---9-9-9-9---2-2-2-2-2-2-2-2---------------------------------|
A|5-5-5-5---7-7-7-7---0-0-0-0-0-0-0-0---------------------------------|
E|--------------------------------------------------------------------|

Guitar 1 Lead
    (these are 10ís)  (12)     (10)
e|-------------------12121212-101010----------9999-7777---------------|
B|-1010101010101010------------------88888888-------------------------|
G|--------------------------------------------------------------------|
D|--------------------------------------------------------------------|
A|--------------------------------------------------------------------|
E|--------------------------------------------------------------------|


Bass break (fuck around with chords already used for awhile, thereís no real change 
the end of the song)


Outro (not sure enough yet about the first intro part before the second drum and bass 
hereís all I got of it so far)
Tremolo picked
e|-1212121212999999998888888889999888999888---------------------------|
B|-9-9-9-9-9-999999999999999999999999999999---------------------------|
G|-8-8-8-8-8-888888888888888888888888888888---------------------------|
D|--------------------------------------------------------------------|
A|--------------------------------------------------------------------|
E|--------------------------------------------------------------------|
Related for Broken Dog Leg tab